  0
SECTION
  2
HEADER
  9
$ACADVER
  1
AC1027
  9
$ACADMAINTVER
 70
   105
  9
$DWGCODEPAGE
  3
ANSI_1252
  9
$REQUIREDVERSIONS
160
                 0
  9
$INSBASE
 10
0.0
 20
0.0
 30
0.0
  9
$EXTMIN
 10
0.0
 20
0.0
 30
0.0
  9
$EXTMAX
 10
594.0
 20
420.0
 30
0.0
  9
$LIMMIN
 10
0.0
 20
0.0
  9
$LIMMAX
 10
594.0
 20
420.0
  9
$ORTHOMODE
 70
     0
  9
$REGENMODE
 70
     1
  9
$FILLMODE
 70
     1
  9
$QTEXTMODE
 70
     0
  9
$MIRRTEXT
 70
     1
  9
$LTSCALE
 40
1.0
  9
$ATTMODE
 70
     1
  9
$TEXTSIZE
 40
3.5
  9
$TRACEWID
 40
1.0
  9
$TEXTSTYLE
  7
Standard
  9
$CLAYER
  8
0
  9
$CELTYPE
  6
ByLayer
  9
$CECOLOR
 62
   256
  9
$CELTSCALE
 40
1.0
  9
$DISPSILH
 70
     0
  9
$DIMSCALE
 40
1.0
  9
$DIMASZ
 40
3.302
  9
$DIMEXO
 40
1.0
  9
$DIMDLI
 40
3.75
  9
$DIMRND
 40
0.0
  9
$DIMDLE
 40
0.0
  9
$DIMEXE
 40
1.0
  9
$DIMTP
 40
0.0
  9
$DIMTM
 40
0.0
  9
$DIMTXT
 40
3.5
  9
$DIMCEN
 40
2.5
  9
$DIMTSZ
 40
0.0
  9
$DIMTOL
 70
     0
  9
$DIMLIM
 70
     0
  9
$DIMTIH
 70
     1
  9
$DIMTOH
 70
     1
  9
$DIMSE1
 70
     0
  9
$DIMSE2
 70
     0
  9
$DIMTAD
 70
     1
  9
$DIMZIN
 70
     0
  9
$DIMBLK
  1

  9
$DIMASO
 70
     1
  9
$DIMSHO
 70
     1
  9
$DIMPOST
  1

  9
$DIMAPOST
  1

  9
$DIMALT
 70
     0
  9
$DIMALTD
 70
     3
  9
$DIMALTF
 40
0.0393700787
  9
$DIMLFAC
 40
20.0
  9
$DIMTOFL
 70
     1
  9
$DIMTVP
 40
0.0
  9
$DIMTIX
 70
     0
  9
$DIMSOXD
 70
     0
  9
$DIMSAH
 70
     0
  9
$DIMBLK1
  1

  9
$DIMBLK2
  1

  9
$DIMSTYLE
  2
ISO-25
  9
$DIMCLRD
 70
     0
  9
$DIMCLRE
 70
     0
  9
$DIMCLRT
 70
     0
  9
$DIMTFAC
 40
1.0
  9
$DIMGAP
 40
1.524
  9
$DIMJUST
 70
     0
  9
$DIMSD1
 70
     0
  9
$DIMSD2
 70
     0
  9
$DIMTOLJ
 70
     0
  9
$DIMTZIN
 70
     0
  9
$DIMALTZ
 70
     0
  9
$DIMALTTZ
 70
     0
  9
$DIMUPT
 70
     0
  9
$DIMDEC
 70
     2
  9
$DIMTDEC
 70
     2
  9
$DIMALTU
 70
     2
  9
$DIMALTTD
 70
     3
  9
$DIMTXSTY
  7
Standard
  9
$DIMAUNIT
 70
     0
  9
$DIMADEC
 70
     2
  9
$DIMALTRND
 40
0.0
  9
$DIMAZIN
 70
     0
  9
$DIMDSEP
 70
    44
  9
$DIMATFIT
 70
     3
  9
$DIMFRAC
 70
     0
  9
$DIMLDRBLK
  1

  9
$DIMLUNIT
 70
     2
  9
$DIMLWD
 70
    -2
  9
$DIMLWE
 70
    -2
  9
$DIMTMOVE
 70
     0
  9
$DIMFXL
 40
1.0
  9
$DIMFXLON
 70
     0
  9
$DIMJOGANG
 40
0.7853981634
  9
$DIMTFILL
 70
     0
  9
$DIMTFILLCLR
 70
     0
  9
$DIMARCSYM
 70
     0
  9
$DIMLTYPE
  6

  9
$DIMLTEX1
  6

  9
$DIMLTEX2
  6

  9
$DIMTXTDIRECTION
 70
     0
  9
$LUNITS
 70
     2
  9
$LUPREC
 70
     2
  9
$SKETCHINC
 40
1.0
  9
$FILLETRAD
 40
10.0
  9
$AUNITS
 70
     0
  9
$AUPREC
 70
     2
  9
$MENU
  1
.
  9
$ELEVATION
 40
0.0
  9
$PELEVATION
 40
0.0
  9
$THICKNESS
 40
0.0
  9
$LIMCHECK
 70
     0
  9
$CHAMFERA
 40
0.0
  9
$CHAMFERB
 40
0.0
  9
$CHAMFERC
 40
0.0
  9
$CHAMFERD
 40
0.0
  9
$SKPOLY
 70
     0
  9
$TDCREATE
 40
2459165.662158345
  9
$TDUCREATE
 40
2459165.620491678
  9
$TDUPDATE
 40
2459165.662159792
  9
$TDUUPDATE
 40
2459165.620493125
  9
$TDINDWG
 40
0.0000000116
  9
$TDUSRTIMER
 40
0.0000000116
  9
$USRTIMER
 70
     1
  9
$ANGBASE
 50
0.0
  9
$ANGDIR
 70
     0
  9
$PDMODE
 70
     0
  9
$PDSIZE
 40
-1.0
  9
$PLINEWID
 40
0.0
  9
$SPLFRAME
 70
     0
  9
$SPLINETYPE
 70
     6
  9
$SPLINESEGS
 70
     8
  9
$HANDSEED
  5
285
  9
$SURFTAB1
 70
     6
  9
$SURFTAB2
 70
     6
  9
$SURFTYPE
 70
     6
  9
$SURFU
 70
     6
  9
$SURFV
 70
     6
  9
$UCSBASE
  2

  9
$UCSNAME
  2

  9
$UCSORG
 10
0.0
 20
0.0
 30
0.0
  9
$UCSXDIR
 10
1.0
 20
0.0
 30
0.0
  9
$UCSYDIR
 10
0.0
 20
1.0
 30
0.0
  9
$UCSORTHOREF
  2

  9
$UCSORTHOVIEW
 70
     0
  9
$UCSORGTOP
 10
0.0
 20
0.0
 30
0.0
  9
$UCSORGBOTTOM
 10
0.0
 20
0.0
 30
0.0
  9
$UCSORGLEFT
 10
0.0
 20
0.0
 30
0.0
  9
$UCSORGRIGHT
 10
0.0
 20
0.0
 30
0.0
  9
$UCSORGFRONT
 10
0.0
 20
0.0
 30
0.0
  9
$UCSORGBACK
 10
0.0
 20
0.0
 30
0.0
  9
$PUCSBASE
  2

  9
$PUCSNAME
  2

  9
$PUCSORG
 10
0.0
 20
0.0
 30
0.0
  9
$PUCSXDIR
 10
1.0
 20
0.0
 30
0.0
  9
$PUCSYDIR
 10
0.0
 20
1.0
 30
0.0
  9
$PUCSORTHOREF
  2

  9
$PUCSORTHOVIEW
 70
     0
  9
$PUCSORGTOP
 10
0.0
 20
0.0
 30
0.0
  9
$PUCSORGBOTTOM
 10
0.0
 20
0.0
 30
0.0
  9
$PUCSORGLEFT
 10
0.0
 20
0.0
 30
0.0
  9
$PUCSORGRIGHT
 10
0.0
 20
0.0
 30
0.0
  9
$PUCSORGFRONT
 10
0.0
 20
0.0
 30
0.0
  9
$PUCSORGBACK
 10
0.0
 20
0.0
 30
0.0
  9
$USERI1
 70
     0
  9
$USERI2
 70
     0
  9
$USERI3
 70
     0
  9
$USERI4
 70
     0
  9
$USERI5
 70
     0
  9
$USERR1
 40
0.0
  9
$USERR2
 40
0.0
  9
$USERR3
 40
0.0
  9
$USERR4
 40
0.0
  9
$USERR5
 40
0.0
  9
$WORLDVIEW
 70
     1
  9
$SHADEDGE
 70
     3
  9
$SHADEDIF
 70
    70
  9
$TILEMODE
 70
     1
  9
$MAXACTVP
 70
    64
  9
$PINSBASE
 10
0.0
 20
0.0
 30
0.0
  9
$PLIMCHECK
 70
     0
  9
$PEXTMIN
 10
1.0000000000E+20
 20
1.0000000000E+20
 30
1.0000000000E+20
  9
$PEXTMAX
 10
-1.0000000000E+20
 20
-1.0000000000E+20
 30
-1.0000000000E+20
  9
$PLIMMIN
 10
0.0
 20
0.0
  9
$PLIMMAX
 10
420.0
 20
297.0
  9
$UNITMODE
 70
     0
  9
$VISRETAIN
 70
     1
  9
$PLINEGEN
 70
     0
  9
$PSLTSCALE
 70
     1
  9
$TREEDEPTH
 70
  3020
  9
$CMLSTYLE
  2
Standard
  9
$CMLJUST
 70
     0
  9
$CMLSCALE
 40
20.0
  9
$PROXYGRAPHICS
 70
     1
  9
$MEASUREMENT
 70
     1
  9
$CELWEIGHT
370
    -1
  9
$ENDCAPS
280
     0
  9
$JOINSTYLE
280
     0
  9
$LWDISPLAY
290
     1
  9
$INSUNITS
 70
     4
  9
$HYPERLINKBASE
  1

  9
$STYLESHEET
  1

  9
$XEDIT
290
     1
  9
$CEPSNTYPE
380
     0
  9
$PSTYLEMODE
290
     1
  9
$FINGERPRINTGUID
  2
{A42439E6-9032-40D3-B61A-E24A09361F00}
  9
$VERSIONGUID
  2
{FAEB1C32-E019-11D5-929B-00C0DF256EC4}
  9
$EXTNAMES
290
     1
  9
$PSVPSCALE
 40
0.0
  9
$OLESTARTUP
290
     0
  9
$SORTENTS
280
   127
  9
$INDEXCTL
280
     0
  9
$HIDETEXT
280
     1
  9
$XCLIPFRAME
280
     2
  9
$HALOGAP
280
     0
  9
$OBSCOLOR
 70
   257
  9
$OBSLTYPE
280
     0
  9
$INTERSECTIONDISPLAY
280
     0
  9
$INTERSECTIONCOLOR
 70
   257
  9
$DIMASSOC
280
     2
  9
$PROJECTNAME
  1

  9
$CAMERADISPLAY
290
     0
  9
$LENSLENGTH
 40
50.0
  9
$CAMERAHEIGHT
 40
0.0
  9
$STEPSPERSEC
 40
2.0
  9
$STEPSIZE
 40
6.0
  9
$3DDWFPREC
 40
2.0
  9
$PSOLWIDTH
 40
5.0
  9
$PSOLHEIGHT
 40
80.0
  9
$LOFTANG1
 40
1.5707963268
  9
$LOFTANG2
 40
1.5707963268
  9
$LOFTMAG1
 40
0.0
  9
$LOFTMAG2
 40
0.0
  9
$LOFTPARAM
 70
     7
  9
$LOFTNORMALS
280
     1
  9
$LATITUDE
 40
37.795
  9
$LONGITUDE
 40
-122.394
  9
$NORTHDIRECTION
 40
0.0
  9
$TIMEZONE
 70
 -8000
  9
$LIGHTGLYPHDISPLAY
280
     1
  9
$TILEMODELIGHTSYNCH
280
     1
  9
$CMATERIAL
347
44
  9
$SOLIDHIST
280
     0
  9
$SHOWHIST
280
     1
  9
$DWFFRAME
280
     2
  9
$DGNFRAME
280
     2
  9
$REALWORLDSCALE
290
     1
  9
$INTERFERECOLOR
 62
   256
  9
$CSHADOW
280
     0
  9
$SHADOWPLANELOCATION
 40
0.0
  0
ENDSEC
  0
SECTION
  2
CLASSES
  0
CLASS
  1
ACDBDICTIONARYWDFLT
  2
AcDbDictionaryWithDefault
  3
ObjectDBX Classes
 90
        0
 91
        4
280
     0
281
     0
  0
CLASS
  1
VISUALSTYLE
  2
AcDbVisualStyle
  3
ObjectDBX Classes
 90
     4095
 91
        4
280
     0
281
     0
  0
CLASS
  1
MATERIAL
  2
AcDbMaterial
  3
ObjectDBX Classes
 90
     1153
 91
        4
280
     0
281
     0
  0
CLASS
  1
SCALE
  2
AcDbScale
  3
ObjectDBX Classes
 90
     1153
 91
        4
280
     0
281
     0
  0
CLASS
  1
TABLESTYLE
  2
AcDbTableStyle
  3
ObjectDBX Classes
 90
     4095
 91
        4
280
     0
281
     0
  0
CLASS
  1
MLEADERSTYLE
  2
AcDbMLeaderStyle
  3
ACDB_MLEADERSTYLE_CLASS
 90
     4095
 91
        4
280
     0
281
     0
  0
CLASS
  1
SUN
  2
AcDbSun
  3
SCENEOE
 90
     1153
 91
        4
280
     0
281
     0
  0
CLASS
  1
DICTIONARYVAR
  2
AcDbDictionaryVar
  3
ObjectDBX Classes
 90
        0
 91
        4
280
     0
281
     0
  0
CLASS
  1
CELLSTYLEMAP
  2
AcDbCellStyleMap
  3
ObjectDBX Classes
 90
     1152
 91
        4
280
     0
281
     0
  0
ENDSEC
  0
SECTION
  2
TABLES
  0
TABLE
  2
VPORT
  5
8
330
0
100
AcDbSymbolTable
 70
     1
  0
VPORT
  5
29
330
8
100
AcDbSymbolTableRecord
100
AcDbViewportTableRecord
  2
*Active
 70
     0
 10
0.0
 20
0.0
 11
1.0
 21
1.0
 12
297.0
 22
210.0
 13
0.0
 23
0.0
 14
10.0
 24
10.0
 15
10.0
 25
10.0
 16
0.0
 26
0.0
 36
1.0
 17
0.0
 27
0.0
 37
0.0
 40
420.0
 41
1.4142857143
 42
50.0
 43
0.0
 44
0.0
 50
0.0
 51
0.0
 71
     0
 72
  2000
 73
     1
 74
     3
 75
     0
 76
     0
 77
     0
 78
     0
281
     0
 65
     1
110
0.0
120
0.0
130
0.0
111
1.0
121
0.0
131
0.0
112
0.0
122
1.0
132
0.0
 79
     0
146
0.0
348
2F
 60
     3
 61
     5
292
     1
282
     1
141
0.0
142
0.0
 63
   250
361
6D
  0
ENDTAB
  0
TABLE
  2
LTYPE
  5
5
330
0
100
AcDbSymbolTable
 70
     6
  0
LTYPE
  5
14
330
5
100
AcDbSymbolTableRecord
100
AcDbLinetypeTableRecord
  2
ByBlock
 70
     0
  3

 72
    65
 73
     0
 40
0.0
  0
LTYPE
  5
15
330
5
100
AcDbSymbolTableRecord
100
AcDbLinetypeTableRecord
  2
ByLayer
 70
     0
  3

 72
    65
 73
     0
 40
0.0
  0
LTYPE
  5
16
330
5
100
AcDbSymbolTableRecord
100
AcDbLinetypeTableRecord
  2
Continuous
 70
     0
  3
Solid line
 72
    65
 73
     0
 40
0.0
  0
LTYPE
  5
6E
330
5
100
AcDbSymbolTableRecord
100
AcDbLinetypeTableRecord
  2
HIDDEN
 70
     0
  3
Hidden __ __ __ __ __ __ __ __ __ __ __ __ __ __
 72
    65
 73
     2
 40
1.905
 49
1.27
 74
     0
 49
-0.635
 74
     0
  0
LTYPE
  5
6F
330
5
100
AcDbSymbolTableRecord
100
AcDbLinetypeTableRecord
  2
PHANTOM
 70
     0
  3
Phantom ______  __  __  ______  __  __  ______
 72
    65
 73
     6
 40
12.7
 49
6.35
 74
     0
 49
-1.27
 74
     0
 49
1.27
 74
     0
 49
-1.27
 74
     0
 49
1.27
 74
     0
 49
-1.27
 74
     0
  0
LTYPE
  5
70
330
5
100
AcDbSymbolTableRecord
100
AcDbLinetypeTableRecord
  2
CENTER
 70
     0
  3
Center ____ _ ____ _ ____ _ ____ _ ____ _ ____
 72
    65
 73
     4
 40
10.16
 49
6.35
 74
     0
 49
-1.27
 74
     0
 49
1.27
 74
     0
 49
-1.27
 74
     0
  0
LTYPE
  5
71
330
5
100
AcDbSymbolTableRecord
100
AcDbLinetypeTableRecord
  2
CENTERX2
 70
     0
  3
Center (2x) ________  __  ________  __  _____
 72
    65
 73
     4
 40
20.32
 49
12.7
 74
     0
 49
-2.54
 74
     0
 49
2.54
 74
     0
 49
-2.54
 74
     0
  0
LTYPE
  5
72
330
5
100
AcDbSymbolTableRecord
100
AcDbLinetypeTableRecord
  2
DOT2
 70
     0
  3
Dot (.5x) ........................................
 72
    65
 73
     2
 40
0.635
 49
0.0
 74
     0
 49
-0.635
 74
     0
  0
ENDTAB
  0
TABLE
  2
LAYER
  5
2
330
0
100
AcDbSymbolTable
 70
    37
  0
LAYER
  5
10
330
2
100
AcDbSymbolTableRecord
100
AcDbLayerTableRecord
  2
0
 70
     0
 62
     7
  6
Continuous
370
    -3
390
F
347
46
348
0
  0
LAYER
  5
73
330
2
100
AcDbSymbolTableRecord
100
AcDbLayerTableRecord
  2
SLD-0
 70
     0
 62
     7
  6
Continuous
370
    -3
390
F
347
46
348
0
  0
LAYER
  5
74
330
2
100
AcDbSymbolTableRecord
100
AcDbLayerTableRecord
  2
RAHMEN025
 70
     0
 62
     7
  6
Continuous
370
    -3
390
F
347
46
348
0
  0
LAYER
  5
75
330
2
100
AcDbSymbolTableRecord
100
AcDbLayerTableRecord
  2
RAHMEN07
 70
     0
 62
     5
  6
Continuous
370
    -3
390
F
347
46
348
0
  0
LAYER
  5
76
330
2
100
AcDbSymbolTableRecord
100
AcDbLayerTableRecord
  2
RAHMEN05
 70
     0
 62
     6
  6
Continuous
370
    -3
390
F
347
46
348
0
  0
LAYER
  5
77
330
2
100
AcDbSymbolTableRecord
100
AcDbLayerTableRecord
  2
TB
 70
     0
 62
     7
  6
Continuous
370
    -3
390
F
347
46
348
0
  0
LAYER
  5
78
330
2
100
AcDbSymbolTableRecord
100
AcDbLayerTableRecord
  2
1-VIDNO
 70
     0
 62
     5
  6
Continuous
370
    -3
390
F
347
46
348
0
  0
LAYER
  5
79
330
2
100
AcDbSymbolTableRecord
100
AcDbLayerTableRecord
  2
2-NEVIDNO
 70
     0
 62
     5
  6
HIDDEN
370
    -3
390
F
347
46
348
0
  0
LAYER
  5
7A
330
2
100
AcDbSymbolTableRecord
100
AcDbLayerTableRecord
  2
O-GLAVE
 70
     0
 62
     5
  6
Continuous
370
    -3
390
F
347
46
348
0
  0
LAYER
  5
7B
330
2
100
AcDbSymbolTableRecord
100
AcDbLayerTableRecord
  2
O-TEKST
 70
     0
 62
     7
  6
Continuous
370
    -3
390
F
347
46
348
0
  0
LAYER
  5
7C
330
2
100
AcDbSymbolTableRecord
100
AcDbLayerTableRecord
  2
O-ZUNANJI
 70
     0
 62
     7
  6
Continuous
370
    -3
390
F
347
46
348
0
  0
LAYER
  5
7D
330
2
100
AcDbSymbolTableRecord
100
AcDbLayerTableRecord
  2
SLD-DEFPOINTS
 70
     0
 62
     7
  6
Continuous
370
    -3
390
F
347
46
348
0
  0
LAYER
  5
7E
330
2
100
AcDbSymbolTableRecord
100
AcDbLayerTableRecord
  2
3-POMOZNO
 70
     0
 62
     4
  6
Continuous
370
    -3
390
F
347
46
348
0
  0
LAYER
  5
7F
330
2
100
AcDbSymbolTableRecord
100
AcDbLayerTableRecord
  2
4-SREDNJICA
 70
     0
 62
     1
  6
CENTER
370
    -3
390
F
347
46
348
0
  0
LAYER
  5
80
330
2
100
AcDbSymbolTableRecord
100
AcDbLayerTableRecord
  2
5-SRAFURA
 70
     0
 62
     7
  6
Continuous
370
    -3
390
F
347
46
348
0
  0
LAYER
  5
81
330
2
100
AcDbSymbolTableRecord
100
AcDbLayerTableRecord
  2
6-KOTE
 70
     0
 62
     7
  6
Continuous
370
    -3
390
F
347
46
348
0
  0
LAYER
  5
82
330
2
100
AcDbSymbolTableRecord
100
AcDbLayerTableRecord
  2
7-TEKST
 70
     0
 62
     7
  6
Continuous
370
    -3
390
F
347
46
348
0
  0
LAYER
  5
83
330
2
100
AcDbSymbolTableRecord
100
AcDbLayerTableRecord
  2
8-VARJENJA
 70
     0
 62
     1
  6
Continuous
370
    -3
390
F
347
46
348
0
  0
LAYER
  5
84
330
2
100
AcDbSymbolTableRecord
100
AcDbLayerTableRecord
  2
BEMASSUNG
 70
     0
 62
     7
  6
Continuous
370
    -3
390
F
347
46
348
0
  0
LAYER
  5
85
330
2
100
AcDbSymbolTableRecord
100
AcDbLayerTableRecord
  2
UMRISS03
 70
     0
 62
     7
  6
Continuous
370
    -3
390
F
347
46
348
0
  0
LAYER
  5
86
330
2
100
AcDbSymbolTableRecord
100
AcDbLayerTableRecord
  2
UMRISS02
 70
     0
 62
     7
  6
Continuous
370
    -3
390
F
347
46
348
0
  0
LAYER
  5
87
330
2
100
AcDbSymbolTableRecord
100
AcDbLayerTableRecord
  2
HILFSLINIEN
 70
     0
 62
     7
  6
Continuous
370
    -3
390
F
347
46
348
0
  0
LAYER
  5
88
330
2
100
AcDbSymbolTableRecord
100
AcDbLayerTableRecord
  2
UMRISS03_-PSPAC_
 70
     0
 62
     7
  6
Continuous
370
    -3
390
F
347
46
348
0
  0
LAYER
  5
89
330
2
100
AcDbSymbolTableRecord
100
AcDbLayerTableRecord
  2
ACA_VARSAVE
 70
     0
 62
     7
  6
Continuous
370
    -3
390
F
347
46
348
0
  0
LAYER
  5
8A
330
2
100
AcDbSymbolTableRecord
100
AcDbLayerTableRecord
  2
KONTUREN
 70
     0
 62
     7
  6
Continuous
370
    -3
390
F
347
46
348
0
  0
LAYER
  5
8B
330
2
100
AcDbSymbolTableRecord
100
AcDbLayerTableRecord
  2
ACHSE
 70
     0
 62
     7
  6
Continuous
370
    -3
390
F
347
46
348
0
  0
LAYER
  5
8C
330
2
100
AcDbSymbolTableRecord
100
AcDbLayerTableRecord
  2
UNSICHTBAR
 70
     0
 62
     7
  6
Continuous
370
    -3
390
F
347
46
348
0
  0
LAYER
  5
8D
330
2
100
AcDbSymbolTableRecord
100
AcDbLayerTableRecord
  2
MASSE
 70
     0
 62
     7
  6
Continuous
370
    -3
390
F
347
46
348
0
  0
LAYER
  5
8E
330
2
100
AcDbSymbolTableRecord
100
AcDbLayerTableRecord
  2
RAND
 70
     0
 62
     7
  6
Continuous
370
    -3
390
F
347
46
348
0
  0
LAYER
  5
8F
330
2
100
AcDbSymbolTableRecord
100
AcDbLayerTableRecord
  2
D-TEXT
 70
     0
 62
     7
  6
Continuous
370
    -3
390
F
347
46
348
0
  0
LAYER
  5
90
330
2
100
AcDbSymbolTableRecord
100
AcDbLayerTableRecord
  2
F-TEXT
 70
     0
 62
     7
  6
Continuous
370
    -3
390
F
347
46
348
0
  0
LAYER
  5
91
330
2
100
AcDbSymbolTableRecord
100
AcDbLayerTableRecord
  2
I-TEXT
 70
     0
 62
     7
  6
Continuous
370
    -3
390
F
347
46
348
0
  0
LAYER
  5
92
330
2
100
AcDbSymbolTableRecord
100
AcDbLayerTableRecord
  2
D-TEXT-FETT
 70
     0
 62
     7
  6
Continuous
370
    -3
390
F
347
46
348
0
  0
LAYER
  5
93
330
2
100
AcDbSymbolTableRecord
100
AcDbLayerTableRecord
  2
F-TEXT-FETT
 70
     0
 62
     7
  6
Continuous
370
    -3
390
F
347
46
348
0
  0
LAYER
  5
94
330
2
100
AcDbSymbolTableRecord
100
AcDbLayerTableRecord
  2
I-TEXT-FETT
 70
     0
 62
     7
  6
Continuous
370
    -3
390
F
347
46
348
0
  0
LAYER
  5
95
330
2
100
AcDbSymbolTableRecord
100
AcDbLayerTableRecord
  2
TEXT-D-F-I
 70
     0
 62
     7
  6
Continuous
370
    -3
390
F
347
46
348
0
  0
LAYER
  5
96
330
2
100
AcDbSymbolTableRecord
100
AcDbLayerTableRecord
  2
TEXT-D-F-I-FETT
 70
     0
 62
     7
  6
Continuous
370
    -3
390
F
347
46
348
0
  0
ENDTAB
  0
TABLE
  2
STYLE
  5
3
330
0
100
AcDbSymbolTable
 70
     2
  0
STYLE
  5
11
330
3
100
AcDbSymbolTableRecord
100
AcDbTextStyleTableRecord
  2
Standard
 70
     0
 40
0.0
 41
1.0
 50
0.0
 71
     0
 42
3.5
  3
txt
  4

  0
STYLE
  5
F2
330
3
100
AcDbSymbolTableRecord
100
AcDbTextStyleTableRecord
  2
SLDTEXTSTYLE0
 70
     0
 40
0.0
 41
0.75
 50
0.0
 71
     0
 42
3.5
  3
TXT
  4

  0
ENDTAB
  0
TABLE
  2
VIEW
  5
6
330
0
100
AcDbSymbolTable
 70
     0
  0
ENDTAB
  0
TABLE
  2
UCS
  5
7
330
0
100
AcDbSymbolTable
 70
     0
  0
ENDTAB
  0
TABLE
  2
APPID
  5
9
330
0
100
AcDbSymbolTable
 70
     1
  0
APPID
  5
12
330
9
100
AcDbSymbolTableRecord
100
AcDbRegAppTableRecord
  2
ACAD
 70
     0
  0
ENDTAB
  0
TABLE
  2
DIMSTYLE
  5
A
330
0
100
AcDbSymbolTable
 70
     1
100
AcDbDimStyleTable
  0
DIMSTYLE
105
27
330
A
100
AcDbSymbolTableRecord
100
AcDbDimStyleTableRecord
  2
ISO-25
 70
     0
 41
2.5
 42
0.625
 43
3.75
 44
1.25
 73
     0
 74
     0
 77
     1
 78
     8
140
2.5
141
2.5
143
0.0393700787
147
0.625
171
     3
172
     1
178
     0
271
     2
272
     2
274
     3
278
    44
283
     0
284
     8
340
11
  0
ENDTAB
  0
TABLE
  2
BLOCK_RECORD
  5
1
330
0
100
AcDbSymbolTable
 70
     3
  0
BLOCK_RECORD
  5
1F
330
1
100
AcDbSymbolTableRecord
100
AcDbBlockTableRecord
  2
*Model_Space
340
22
 70
     0
280
     1
281
     0
  0
BLOCK_RECORD
  5
1B
330
1
100
AcDbSymbolTableRecord
100
AcDbBlockTableRecord
  2
*Paper_Space
340
1E
 70
     0
280
     1
281
     0
  0
BLOCK_RECORD
  5
23
330
1
100
AcDbSymbolTableRecord
100
AcDbBlockTableRecord
  2
*Paper_Space0
340
26
 70
     0
280
     1
281
     0
  0
BLOCK_RECORD
  5
131
330
1
100
AcDbSymbolTableRecord
100
AcDbBlockTableRecord
  2
SW_NOTE_0
340
0
102
{BLKREFS
331
136
102
}
 70
     0
280
     1
281
     0
  0
BLOCK_RECORD
  5
17D
330
1
100
AcDbSymbolTableRecord
100
AcDbBlockTableRecord
  2
SW_NOTE_1
340
0
102
{BLKREFS
331
182
102
}
 70
     0
280
     1
281
     0
  0
ENDTAB
  0
ENDSEC
  0
SECTION
  2
BLOCKS
  0
BLOCK
  5
20
330
1F
100
AcDbEntity
  8
0
100
AcDbBlockBegin
  2
*Model_Space
 70
     0
 10
0.0
 20
0.0
 30
0.0
  3
*Model_Space
  1

  0
ENDBLK
  5
21
330
1F
100
AcDbEntity
  8
0
100
AcDbBlockEnd
  0
BLOCK
  5
1C
330
1B
100
AcDbEntity
 67
     1
  8
0
100
AcDbBlockBegin
  2
*Paper_Space
 70
     0
 10
0.0
 20
0.0
 30
0.0
  3
*Paper_Space
  1

  0
ENDBLK
  5
1D
330
1B
100
AcDbEntity
 67
     1
  8
0
100
AcDbBlockEnd
  0
BLOCK
  5
24
330
23
100
AcDbEntity
  8
0
100
AcDbBlockBegin
  2
*Paper_Space0
 70
     0
 10
0.0
 20
0.0
 30
0.0
  3
*Paper_Space0
  1

  0
ENDBLK
  5
25
330
23
100
AcDbEntity
  8
0
100
AcDbBlockEnd
  0
BLOCK
  5
132
330
131
100
AcDbEntity
  8
0
100
AcDbBlockBegin
  2
SW_NOTE_0
 70
     0
 10
0.0
 20
0.0
 30
0.0
  3
SW_NOTE_0
  1

  0
MTEXT
  5
134
330
131
100
AcDbEntity
  8
O-TEKST
 62
     0
100
AcDbMText
 10
16.0734375
 20
8.1855801476
 30
0.0
 40
6.35
 41
0.0
 46
0.0
 71
     2
 72
     1
  1
SCHNITT
  7
SLDTEXTSTYLE0
 73
     1
 44
1.0
  0
MTEXT
  5
135
330
131
100
AcDbEntity
  8
O-TEKST
 62
     0
100
AcDbMText
 10
38.5538176
 20
5.3469457771
 30
0.0
 40
3.5
 41
0.0
 46
0.0
 71
     2
 72
     1
  1
A-A
  7
SLDTEXTSTYLE0
 73
     1
 44
1.0
  0
ENDBLK
  5
133
330
131
100
AcDbEntity
  8
0
100
AcDbBlockEnd
  0
BLOCK
  5
17E
330
17D
100
AcDbEntity
  8
0
100
AcDbBlockBegin
  2
SW_NOTE_1
 70
     0
 10
0.0
 20
0.0
 30
0.0
  3
SW_NOTE_1
  1

  0
MTEXT
  5
180
330
17D
100
AcDbEntity
  8
O-TEKST
 62
     0
100
AcDbMText
 10
16.0734375
 20
8.1855801476
 30
0.0
 40
6.35
 41
0.0
 46
0.0
 71
     2
 72
     1
  1
SCHNITT
  7
SLDTEXTSTYLE0
 73
     1
 44
1.0
  0
MTEXT
  5
181
330
17D
100
AcDbEntity
  8
O-TEKST
 62
     0
100
AcDbMText
 10
38.0069426
 20
5.3469457771
 30
0.0
 40
3.5
 41
0.0
 46
0.0
 71
     2
 72
     1
  1
B-B
  7
SLDTEXTSTYLE0
 73
     1
 44
1.0
  0
ENDBLK
  5
17F
330
17D
100
AcDbEntity
  8
0
100
AcDbBlockEnd
  0
ENDSEC
  0
SECTION
  2
ENTITIES
  0
LINE
  5
97
330
1F
100
AcDbEntity
  8
0
  6
Continuous
 62
     7
370
    25
100
AcDbLine
 10
237.3910506864
 20
113.0012671595
 30
0.0
 11
237.3910506864
 21
118.5012671595
 31
0.0
  0
LINE
  5
98
330
1F
100
AcDbEntity
  8
0
  6
Continuous
 62
     7
370
    25
100
AcDbLine
 10
164.0410506864
 20
113.0012671595
 30
0.0
 11
164.0410506864
 21
118.5012671595
 31
0.0
  0
LINE
  5
99
330
1F
100
AcDbEntity
  8
0
  6
Continuous
 62
     7
370
    25
100
AcDbLine
 10
237.3910506864
 20
113.0012671595
 30
0.0
 11
164.0410506864
 21
113.0012671595
 31
0.0
  0
LINE
  5
9A
330
1F
100
AcDbEntity
  8
0
  6
Continuous
 62
     7
370
    25
100
AcDbLine
 10
237.3910506864
 20
118.5012671595
 30
0.0
 11
164.0410506864
 21
118.5012671595
 31
0.0
  0
LINE
  5
9B
330
1F
100
AcDbEntity
  8
0
  6
Continuous
 62
     7
370
    25
100
AcDbLine
 10
164.0410506864
 20
79.0012671595
 30
0.0
 11
237.3910506864
 21
79.0012671595
 31
0.0
  0
LINE
  5
9C
330
1F
100
AcDbEntity
  8
0
  6
Continuous
 62
     7
370
    25
100
AcDbLine
 10
237.3910506864
 20
73.5012671595
 30
0.0
 11
237.3910506864
 21
79.0012671595
 31
0.0
  0
LINE
  5
9D
330
1F
100
AcDbEntity
  8
0
  6
Continuous
 62
     7
370
    25
100
AcDbLine
 10
237.3910506864
 20
73.5012671595
 30
0.0
 11
164.0410506864
 21
73.5012671595
 31
0.0
  0
LINE
  5
9E
330
1F
100
AcDbEntity
  8
0
  6
Continuous
 62
     7
370
    25
100
AcDbLine
 10
164.0410506864
 20
79.0012671595
 30
0.0
 11
164.0410506864
 21
73.5012671595
 31
0.0
  0
LINE
  5
9F
330
1F
100
AcDbEntity
  8
0
  6
Continuous
 62
     7
370
    25
100
AcDbLine
 10
167.3910506864
 20
89.1012671595
 30
0.0
 11
162.3910506864
 21
89.1012671595
 31
0.0
  0
LINE
  5
A0
330
1F
100
AcDbEntity
  8
0
  6
Continuous
 62
     7
370
    25
100
AcDbLine
 10
167.3910506864
 20
89.1012671595
 30
0.0
 11
167.3910506864
 21
81.0012671595
 31
0.0
  0
LINE
  5
A1
330
1F
100
AcDbEntity
  8
0
  6
Continuous
 62
     7
370
    25
100
AcDbLine
 10
167.3910506864
 20
81.0012671595
 30
0.0
 11
237.3910506864
 21
81.0012671595
 31
0.0
  0
LINE
  5
A2
330
1F
100
AcDbEntity
  8
0
  6
Continuous
 62
     7
370
    25
100
AcDbLine
 10
162.3910506864
 20
85.1012671595
 30
0.0
 11
164.0410506864
 21
84.8428840548
 31
0.0
  0
LINE
  5
A3
330
1F
100
AcDbEntity
  8
0
  6
Continuous
 62
     7
370
    25
100
AcDbLine
 10
164.0410506864
 20
79.0012671595
 30
0.0
 11
164.0410506864
 21
81.6012671595
 31
0.0
  0
LINE
  5
A4
330
1F
100
AcDbEntity
  8
0
  6
Continuous
 62
     7
370
    25
100
AcDbLine
 10
164.0410506864
 20
84.6012671595
 30
0.0
 11
164.0410506864
 21
84.8428840548
 31
0.0
  0
LINE
  5
A5
330
1F
100
AcDbEntity
  8
0
  6
Continuous
 62
     7
370
    25
100
AcDbLine
 10
237.3910506864
 20
79.0012671595
 30
0.0
 11
237.3910506864
 21
81.0012671595
 31
0.0
  0
LINE
  5
A6
330
1F
100
AcDbEntity
  8
0
  6
Continuous
 62
     7
370
    25
100
AcDbLine
 10
167.3910506864
 20
102.9012671595
 30
0.0
 11
167.3910506864
 21
111.0012671595
 31
0.0
  0
LINE
  5
A7
330
1F
100
AcDbEntity
  8
0
  6
Continuous
 62
     7
370
    25
100
AcDbLine
 10
167.3910506864
 20
102.9012671595
 30
0.0
 11
162.3910506864
 21
102.9012671595
 31
0.0
  0
LINE
  5
A8
330
1F
100
AcDbEntity
  8
0
  6
Continuous
 62
     7
370
    25
100
AcDbLine
 10
164.0410506864
 20
107.1596502641
 30
0.0
 11
162.3910506864
 21
106.9012671595
 31
0.0
  0
LINE
  5
A9
330
1F
100
AcDbEntity
  8
0
  6
Continuous
 62
     7
370
    25
100
AcDbLine
 10
167.3910506864
 20
111.0012671595
 30
0.0
 11
237.3910506864
 21
111.0012671595
 31
0.0
  0
LINE
  5
AA
330
1F
100
AcDbEntity
  8
0
  6
Continuous
 62
     7
370
    25
100
AcDbLine
 10
164.0410506864
 20
107.1596502641
 30
0.0
 11
164.0410506864
 21
107.4012671595
 31
0.0
  0
LINE
  5
AB
330
1F
100
AcDbEntity
  8
0
  6
Continuous
 62
     7
370
    25
100
AcDbLine
 10
164.0410506864
 20
110.4012671595
 30
0.0
 11
164.0410506864
 21
113.0012671595
 31
0.0
  0
LINE
  5
AC
330
1F
100
AcDbEntity
  8
0
  6
Continuous
 62
     7
370
    25
100
AcDbLine
 10
237.3910506864
 20
111.0012671595
 30
0.0
 11
237.3910506864
 21
113.0012671595
 31
0.0
  0
LINE
  5
AD
330
1F
100
AcDbEntity
  8
0
  6
Continuous
 62
     7
370
    25
100
AcDbLine
 10
237.3910506864
 20
111.0012671595
 30
0.0
 11
237.3910506864
 21
81.0012671595
 31
0.0
  0
LINE
  5
AE
330
1F
100
AcDbEntity
  8
0
  6
Continuous
 62
     7
370
    25
100
AcDbLine
 10
162.3910506864
 20
102.9012671595
 30
0.0
 11
162.3910506864
 21
89.1012671595
 31
0.0
  0
LINE
  5
AF
330
1F
100
AcDbEntity
  8
0
  6
Continuous
 62
     7
370
    25
100
AcDbLine
 10
39.0410506864
 20
73.5012671595
 30
0.0
 11
114.0410506864
 21
73.5012671595
 31
0.0
  0
LINE
  5
B0
330
1F
100
AcDbEntity
  8
0
  6
Continuous
 62
     7
370
    25
100
AcDbLine
 10
114.0410506864
 20
79.0012671595
 30
0.0
 11
114.0410506864
 21
73.5012671595
 31
0.0
  0
LINE
  5
B1
330
1F
100
AcDbEntity
  8
0
  6
Continuous
 62
     7
370
    25
100
AcDbLine
 10
39.0410506864
 20
79.0012671595
 30
0.0
 11
114.0410506864
 21
79.0012671595
 31
0.0
  0
LINE
  5
B2
330
1F
100
AcDbEntity
  8
0
  6
Continuous
 62
     7
370
    25
100
AcDbLine
 10
39.0410506864
 20
79.0012671595
 30
0.0
 11
39.0410506864
 21
73.5012671595
 31
0.0
  0
LINE
  5
B3
330
1F
100
AcDbEntity
  8
0
  6
Continuous
 62
     7
370
    25
100
AcDbLine
 10
39.0410506864
 20
118.5012671595
 30
0.0
 11
114.0410506864
 21
118.5012671595
 31
0.0
  0
LINE
  5
B4
330
1F
100
AcDbEntity
  8
0
  6
Continuous
 62
     7
370
    25
100
AcDbLine
 10
114.0410506864
 20
118.5012671595
 30
0.0
 11
114.0410506864
 21
113.0012671595
 31
0.0
  0
LINE
  5
B5
330
1F
100
AcDbEntity
  8
0
  6
Continuous
 62
     7
370
    25
100
AcDbLine
 10
114.0410506864
 20
113.0012671595
 30
0.0
 11
39.0410506864
 21
113.0012671595
 31
0.0
  0
LINE
  5
B6
330
1F
100
AcDbEntity
  8
0
  6
Continuous
 62
     7
370
    25
100
AcDbLine
 10
39.0410506864
 20
118.5012671595
 30
0.0
 11
39.0410506864
 21
113.0012671595
 31
0.0
  0
LINE
  5
B7
330
1F
100
AcDbEntity
  8
0
  6
Continuous
 62
     7
370
    25
100
AcDbLine
 10
112.3910506864
 20
107.1512671595
 30
0.0
 11
114.0410506864
 21
107.1512671595
 31
0.0
  0
LINE
  5
B8
330
1F
100
AcDbEntity
  8
0
  6
Continuous
 62
     7
370
    25
100
AcDbLine
 10
112.3910506864
 20
106.9012671595
 30
0.0
 11
112.3910506864
 21
107.1512671595
 31
0.0
  0
LINE
  5
B9
330
1F
100
AcDbEntity
  8
0
  6
Continuous
 62
     7
370
    25
100
AcDbLine
 10
109.0410506864
 20
102.9012671595
 30
0.0
 11
112.3910506864
 21
102.9012671595
 31
0.0
  0
LINE
  5
BA
330
1F
100
AcDbEntity
  8
0
  6
Continuous
 62
     7
370
    25
100
AcDbLine
 10
109.0410506864
 20
102.9012671595
 30
0.0
 11
109.0410506864
 21
111.0012671595
 31
0.0
  0
LINE
  5
BB
330
1F
100
AcDbEntity
  8
0
  6
Continuous
 62
     7
370
    25
100
AcDbLine
 10
109.0410506864
 20
111.0012671595
 30
0.0
 11
39.0410506864
 21
111.0012671595
 31
0.0
  0
LINE
  5
BC
330
1F
100
AcDbEntity
  8
0
  6
Continuous
 62
     7
370
    25
100
AcDbLine
 10
114.0410506864
 20
110.4012671595
 30
0.0
 11
114.0410506864
 21
113.0012671595
 31
0.0
  0
LINE
  5
BD
330
1F
100
AcDbEntity
  8
0
  6
Continuous
 62
     7
370
    25
100
AcDbLine
 10
39.0410506864
 20
113.0012671595
 30
0.0
 11
39.0410506864
 21
111.0012671595
 31
0.0
  0
LINE
  5
BE
330
1F
100
AcDbEntity
  8
0
  6
Continuous
 62
     7
370
    25
100
AcDbLine
 10
109.0410506864
 20
89.1012671595
 30
0.0
 11
109.0410506864
 21
81.0012671595
 31
0.0
  0
LINE
  5
BF
330
1F
100
AcDbEntity
  8
0
  6
Continuous
 62
     7
370
    25
100
AcDbLine
 10
109.0410506864
 20
89.1012671595
 30
0.0
 11
112.3910506864
 21
89.1012671595
 31
0.0
  0
LINE
  5
C0
330
1F
100
AcDbEntity
  8
0
  6
Continuous
 62
     7
370
    25
100
AcDbLine
 10
112.3910506864
 20
85.1012671595
 30
0.0
 11
112.3910506864
 21
84.8512671595
 31
0.0
  0
LINE
  5
C1
330
1F
100
AcDbEntity
  8
0
  6
Continuous
 62
     7
370
    25
100
AcDbLine
 10
112.3910506864
 20
84.8512671595
 30
0.0
 11
114.0410506864
 21
84.8512671595
 31
0.0
  0
LINE
  5
C2
330
1F
100
AcDbEntity
  8
0
  6
Continuous
 62
     7
370
    25
100
AcDbLine
 10
109.0410506864
 20
81.0012671595
 30
0.0
 11
39.0410506864
 21
81.0012671595
 31
0.0
  0
LINE
  5
C3
330
1F
100
AcDbEntity
  8
0
  6
Continuous
 62
     7
370
    25
100
AcDbLine
 10
114.0410506864
 20
79.0012671595
 30
0.0
 11
114.0410506864
 21
81.6012671595
 31
0.0
  0
LINE
  5
C4
330
1F
100
AcDbEntity
  8
0
  6
Continuous
 62
     7
370
    25
100
AcDbLine
 10
39.0410506864
 20
81.0012671595
 30
0.0
 11
39.0410506864
 21
79.0012671595
 31
0.0
  0
LINE
  5
C5
330
1F
100
AcDbEntity
  8
0
  6
Continuous
 62
     7
370
    25
100
AcDbLine
 10
39.0410506864
 20
81.0012671595
 30
0.0
 11
39.0410506864
 21
111.0012671595
 31
0.0
  0
LINE
  5
C6
330
1F
100
AcDbEntity
  8
0
  6
Continuous
 62
     7
370
    25
100
AcDbLine
 10
112.3910506864
 20
102.9012671595
 30
0.0
 11
112.3910506864
 21
89.1012671595
 31
0.0
  0
CIRCLE
  5
C7
330
1F
100
AcDbEntity
  8
0
  6
Continuous
 62
     7
370
    25
100
AcDbCircle
 10
150.7160506864
 20
115.5012671595
 30
0.0
 40
0.2499999999999986
  0
CIRCLE
  5
C8
330
1F
100
AcDbEntity
  8
0
  6
Continuous
 62
     7
370
    25
100
AcDbCircle
 10
125.7160506864
 20
76.5012671595
 30
0.0
 40
0.2500000000000028
  0
CIRCLE
  5
C9
330
1F
100
AcDbEntity
  8
0
  6
Continuous
 62
     7
370
    25
100
AcDbCircle
 10
125.7160506864
 20
115.5012671595
 30
0.0
 40
0.2499999999999909
  0
CIRCLE
  5
CA
330
1F
100
AcDbEntity
  8
0
  6
Continuous
 62
     7
370
    25
100
AcDbCircle
 10
150.7160506864
 20
76.5012671595
 30
0.0
 40
0.2500000000000105
  0
LINE
  5
CB
330
1F
100
AcDbEntity
  8
0
  6
Continuous
 62
     7
370
    25
100
AcDbLine
 10
112.3910506864
 20
87.1012671595
 30
0.0
 11
162.3910506864
 21
87.1012671595
 31
0.0
  0
LINE
  5
CC
330
1F
100
AcDbEntity
  8
0
  6
Continuous
 62
     7
370
    25
100
AcDbLine
 10
162.3910506864
 20
87.1012671595
 30
0.0
 11
162.3910506864
 21
84.850806198
 31
0.0
  0
LINE
  5
CD
330
1F
100
AcDbEntity
  8
0
  6
Continuous
 62
     7
370
    25
100
AcDbLine
 10
164.0410506864
 20
84.6012671595
 30
0.0
 11
162.3910506864
 21
84.850806198
 31
0.0
  0
LINE
  5
CE
330
1F
100
AcDbEntity
  8
0
  6
Continuous
 62
     7
370
    25
100
AcDbLine
 10
164.0410506864
 20
84.6012671595
 30
0.0
 11
164.0410506864
 21
81.6012671595
 31
0.0
  0
LINE
  5
CF
330
1F
100
AcDbEntity
  8
0
  6
Continuous
 62
     7
370
    25
100
AcDbLine
 10
164.0410506864
 20
81.6012671595
 30
0.0
 11
114.0410506864
 21
81.6012671595
 31
0.0
  0
LINE
  5
D0
330
1F
100
AcDbEntity
  8
0
  6
Continuous
 62
     7
370
    25
100
AcDbLine
 10
114.0410506864
 20
81.6012671595
 30
0.0
 11
114.0410506864
 21
84.8517281209
 31
0.0
  0
LINE
  5
D1
330
1F
100
AcDbEntity
  8
0
  6
Continuous
 62
     7
370
    25
100
AcDbLine
 10
112.3910506864
 20
85.1012671595
 30
0.0
 11
114.0410506864
 21
84.8517281209
 31
0.0
  0
LINE
  5
D2
330
1F
100
AcDbEntity
  8
0
  6
Continuous
 62
     7
370
    25
100
AcDbLine
 10
112.3910506864
 20
87.1012671595
 30
0.0
 11
112.3910506864
 21
85.1012671595
 31
0.0
  0
LINE
  5
D3
330
1F
100
AcDbEntity
  8
0
  6
Continuous
 62
     7
370
    25
100
AcDbLine
 10
164.0410506864
 20
110.4012671595
 30
0.0
 11
114.0410506864
 21
110.4012671595
 31
0.0
  0
LINE
  5
D4
330
1F
100
AcDbEntity
  8
0
  6
Continuous
 62
     7
370
    25
100
AcDbLine
 10
164.0410506864
 20
110.4012671595
 30
0.0
 11
164.0410506864
 21
107.4012671595
 31
0.0
  0
LINE
  5
D5
330
1F
100
AcDbEntity
  8
0
  6
Continuous
 62
     7
370
    25
100
AcDbLine
 10
162.3910506864
 20
107.1517281209
 30
0.0
 11
164.0410506864
 21
107.4012671595
 31
0.0
  0
LINE
  5
D6
330
1F
100
AcDbEntity
  8
0
  6
Continuous
 62
     7
370
    25
100
AcDbLine
 10
114.0410506864
 20
107.150806198
 30
0.0
 11
112.3910506864
 21
106.9012671595
 31
0.0
  0
LINE
  5
D7
330
1F
100
AcDbEntity
  8
0
  6
Continuous
 62
     7
370
    25
100
AcDbLine
 10
114.0410506864
 20
107.150806198
 30
0.0
 11
114.0410506864
 21
110.4012671595
 31
0.0
  0
LINE
  5
D8
330
1F
100
AcDbEntity
  8
0
  6
Continuous
 62
     7
370
    25
100
AcDbLine
 10
162.3910506864
 20
107.1517281209
 30
0.0
 11
162.3910506864
 21
104.9012671595
 31
0.0
  0
LINE
  5
D9
330
1F
100
AcDbEntity
  8
0
  6
Continuous
 62
     7
370
    25
100
AcDbLine
 10
112.3910506864
 20
106.9012671595
 30
0.0
 11
112.3910506864
 21
104.9012671595
 31
0.0
  0
LINE
  5
DA
330
1F
100
AcDbEntity
  8
0
  6
Continuous
 62
     7
370
    25
100
AcDbLine
 10
162.3910506864
 20
104.9012671595
 30
0.0
 11
112.3910506864
 21
104.9012671595
 31
0.0
  0
LINE
  5
DB
330
1F
100
AcDbEntity
  8
0
  6
Continuous
 62
     7
370
    25
100
AcDbLine
 10
112.3910506864
 20
89.1012671595
 30
0.0
 11
162.3910506864
 21
89.1012671595
 31
0.0
  0
LINE
  5
DC
330
1F
100
AcDbEntity
  8
0
  6
Continuous
 62
     7
370
    25
100
AcDbLine
 10
162.3910506864
 20
87.1012671595
 30
0.0
 11
162.3910506864
 21
89.1012671595
 31
0.0
  0
LINE
  5
DD
330
1F
100
AcDbEntity
  8
0
  6
Continuous
 62
     7
370
    25
100
AcDbLine
 10
112.3910506864
 20
89.1012671595
 30
0.0
 11
112.3910506864
 21
87.1012671595
 31
0.0
  0
LINE
  5
DE
330
1F
100
AcDbEntity
  8
0
  6
Continuous
 62
     7
370
    25
100
AcDbLine
 10
162.3910506864
 20
102.9012671595
 30
0.0
 11
112.3910506864
 21
102.9012671595
 31
0.0
  0
LINE
  5
DF
330
1F
100
AcDbEntity
  8
0
  6
Continuous
 62
     7
370
    25
100
AcDbLine
 10
162.3910506864
 20
102.9012671595
 30
0.0
 11
162.3910506864
 21
104.9012671595
 31
0.0
  0
LINE
  5
E0
330
1F
100
AcDbEntity
  8
0
  6
Continuous
 62
     7
370
    25
100
AcDbLine
 10
112.3910506864
 20
104.9012671595
 30
0.0
 11
112.3910506864
 21
102.9012671595
 31
0.0
  0
LINE
  5
E1
330
1F
100
AcDbEntity
  8
0
  6
Continuous
 62
     7
370
    25
100
AcDbLine
 10
164.0410506864
 20
73.5012671595
 30
0.0
 11
114.0410506864
 21
73.5012671595
 31
0.0
  0
CIRCLE
  5
E2
330
1F
100
AcDbEntity
  8
0
  6
Continuous
 62
     7
370
    25
100
AcDbCircle
 10
150.7160506864
 20
76.5012671595
 30
0.0
 40
1.0
  0
CIRCLE
  5
E3
330
1F
100
AcDbEntity
  8
0
  6
Continuous
 62
     7
370
    25
100
AcDbCircle
 10
125.7160506864
 20
76.5012671595
 30
0.0
 40
1.0
  0
LINE
  5
E4
330
1F
100
AcDbEntity
  8
0
  6
Continuous
 62
     7
370
    25
100
AcDbLine
 10
164.0410506864
 20
118.5012671595
 30
0.0
 11
114.0410506864
 21
118.5012671595
 31
0.0
  0
CIRCLE
  5
E5
330
1F
100
AcDbEntity
  8
0
  6
Continuous
 62
     7
370
    25
100
AcDbCircle
 10
125.7160506864
 20
115.5012671595
 30
0.0
 40
1.0
  0
CIRCLE
  5
E6
330
1F
100
AcDbEntity
  8
0
  6
Continuous
 62
     7
370
    25
100
AcDbCircle
 10
150.7160506864
 20
115.5012671595
 30
0.0
 40
1.0
  0
LINE
  5
E7
330
1F
100
AcDbEntity
  8
0
  6
PHANTOM
 62
     1
370
    18
100
AcDbLine
 10
237.2877455211
 20
111.0012671595
 30
0.0
 11
237.2877455211
 21
81.0012671595
 31
0.0
  0
LINE
  5
E8
330
1F
100
AcDbEntity
  8
0
  6
PHANTOM
 62
     1
370
    18
100
AcDbLine
 10
218.9133191744
 20
81.0012671595
 30
0.0
 11
218.9133191744
 21
111.0012671595
 31
0.0
  0
LINE
  5
E9
330
1F
100
AcDbEntity
  8
0
  6
PHANTOM
 62
     1
370
    18
100
AcDbLine
 10
180.7376356348
 20
111.0012671595
 30
0.0
 11
180.7376356348
 21
81.0012671595
 31
0.0
  0
LINE
  5
EA
330
1F
100
AcDbEntity
  8
0
  6
PHANTOM
 62
     1
370
    18
100
AcDbLine
 10
39.1443558517
 20
81.0012671595
 30
0.0
 11
39.1443558517
 21
111.0012671595
 31
0.0
  0
LINE
  5
EB
330
1F
100
AcDbEntity
  8
0
  6
PHANTOM
 62
     1
370
    18
100
AcDbLine
 10
57.5187821983
 20
111.0012671595
 30
0.0
 11
57.5187821983
 21
81.0012671595
 31
0.0
  0
LINE
  5
EC
330
1F
100
AcDbEntity
  8
0
  6
PHANTOM
 62
     1
370
    18
100
AcDbLine
 10
95.694465738
 20
81.0012671595
 30
0.0
 11
95.694465738
 21
111.0012671595
 31
0.0
  0
LINE
  5
ED
330
1F
100
AcDbEntity
  8
0
  6
PHANTOM
 62
     7
370
    35
100
AcDbLine
 10
139.0410506864
 20
125.0872632035
 30
0.0
 11
139.0410506864
 21
66.9152711155
 31
0.0
  0
LINE
  5
EE
330
1F
100
AcDbEntity
  8
0
  6
Continuous
 62
     7
370
    35
100
AcDbLine
 10
127.0410506864
 20
123.0872632035
 30
0.0
 11
139.0410506864
 21
123.0872632035
 31
0.0
  0
SOLID
  5
EF
330
1F
100
AcDbEntity
  8
0
  6
Continuous
 62
     7
370
    35
100
AcDbTrace
 10
139.0410506864
 20
123.0872632035
 30
0.0
 11
133.0410506864
 21
124.5872632035
 31
0.0
 12
133.0410506864
 22
121.5872632035
 32
0.0
 13
133.0410506864
 23
121.5872632035
 33
0.0
  0
LINE
  5
F0
330
1F
100
AcDbEntity
  8
0
  6
Continuous
 62
     7
370
    35
100
AcDbLine
 10
127.0410506864
 20
68.9152711155
 30
0.0
 11
139.0410506864
 21
68.9152711155
 31
0.0
  0
SOLID
  5
F1
330
1F
100
AcDbEntity
  8
0
  6
Continuous
 62
     7
370
    35
100
AcDbTrace
 10
139.0410506864
 20
68.9152711155
 30
0.0
 11
133.0410506864
 21
70.4152711155
 31
0.0
 12
133.0410506864
 22
67.4152711155
 32
0.0
 13
133.0410506864
 23
67.4152711155
 33
0.0
  0
MTEXT
  5
F3
330
1F
100
AcDbEntity
  8
0
  6
Continuous
 62
     7
100
AcDbMText
 10
127.0410506864
 20
133.1731414933
 30
0.0
 40
6.35
 41
0.0
 46
0.0
 71
     1
 72
     1
  1
A
  7
SLDTEXTSTYLE0
 73
     1
 44
1.0
  0
MTEXT
  5
F4
330
1F
100
AcDbEntity
  8
0
  6
Continuous
 62
     7
100
AcDbMText
 10
127.0410506864
 20
65.5566736449
 30
0.0
 40
6.35
 41
0.0
 46
0.0
 71
     1
 72
     1
  1
A
  7
SLDTEXTSTYLE0
 73
     1
 44
1.0
  0
LINE
  5
F5
330
1F
100
AcDbEntity
  8
0
  6
PHANTOM
 62
     7
370
    35
100
AcDbLine
 10
261.1930506864
 20
96.0012671595
 30
0.0
 11
15.2390506864
 21
96.0012671595
 31
0.0
  0
LINE
  5
F6
330
1F
100
AcDbEntity
  8
0
  6
Continuous
 62
     7
370
    35
100
AcDbLine
 10
259.1930506864
 20
84.0012671595
 30
0.0
 11
259.1930506864
 21
96.0012671595
 31
0.0
  0
SOLID
  5
F7
330
1F
100
AcDbEntity
  8
0
  6
Continuous
 62
     7
370
    35
100
AcDbTrace
 10
259.1930506864
 20
96.0012671595
 30
0.0
 11
257.6930506864
 21
90.0012671595
 31
0.0
 12
260.6930506864
 22
90.0012671595
 32
0.0
 13
260.6930506864
 23
90.0012671595
 33
0.0
  0
LINE
  5
F8
330
1F
100
AcDbEntity
  8
0
  6
Continuous
 62
     7
370
    35
100
AcDbLine
 10
17.2390506864
 20
84.0012671595
 30
0.0
 11
17.2390506864
 21
96.0012671595
 31
0.0
  0
SOLID
  5
F9
330
1F
100
AcDbEntity
  8
0
  6
Continuous
 62
     7
370
    35
100
AcDbTrace
 10
17.2390506864
 20
96.0012671595
 30
0.0
 11
15.7390506864
 21
90.0012671595
 31
0.0
 12
18.7390506864
 22
90.0012671595
 32
0.0
 13
18.7390506864
 23
90.0012671595
 33
0.0
  0
MTEXT
  5
FA
330
1F
100
AcDbEntity
  8
0
  6
Continuous
 62
     7
100
AcDbMText
 10
261.1381843566
 20
94.0871454493
 30
0.0
 40
6.35
 41
0.0
 46
0.0
 71
     1
 72
     1
  1
B
  7
SLDTEXTSTYLE0
 73
     1
 44
1.0
  0
MTEXT
  5
FB
330
1F
100
AcDbEntity
  8
0
  6
Continuous
 62
     7
100
AcDbMText
 10
10.4310828407
 20
94.0871454493
 30
0.0
 40
6.35
 41
0.0
 46
0.0
 71
     1
 72
     1
  1
B
  7
SLDTEXTSTYLE0
 73
     1
 44
1.0
  0
LINE
  5
FC
330
1F
100
AcDbEntity
  8
0
  6
Continuous
 62
     7
370
    25
100
AcDbLine
 10
424.8203273495
 20
87.1012671595
 30
0.0
 11
424.8203273495
 21
89.1012671595
 31
0.0
  0
LINE
  5
FD
330
1F
100
AcDbEntity
  8
0
  6
Continuous
 62
     7
370
    25
100
AcDbLine
 10
424.8203273495
 20
87.1012671595
 30
0.0
 11
427.0703273495
 21
87.1012671595
 31
0.0
  0
LINE
  5
FE
330
1F
100
AcDbEntity
  8
0
  6
Continuous
 62
     7
370
    25
100
AcDbLine
 10
427.0703273495
 20
87.1012671595
 30
0.0
 11
427.0703273495
 21
81.6012671595
 31
0.0
  0
LINE
  5
FF
330
1F
100
AcDbEntity
  8
0
  6
Continuous
 62
     7
370
    25
100
AcDbLine
 10
427.0703273495
 20
81.6012671595
 30
0.0
 11
405.0703273495
 21
81.6012671595
 31
0.0
  0
LINE
  5
100
330
1F
100
AcDbEntity
  8
0
  6
Continuous
 62
     7
370
    25
100
AcDbLine
 10
404.0703273495
 20
82.6012671595
 30
0.0
 11
405.0703273495
 21
81.6012671595
 31
0.0
  0
LINE
  5
101
330
1F
100
AcDbEntity
  8
0
  6
Continuous
 62
     7
370
    25
100
AcDbLine
 10
403.0703273495
 20
81.6012671595
 30
0.0
 11
404.0703273495
 21
82.6012671595
 31
0.0
  0
LINE
  5
102
330
1F
100
AcDbEntity
  8
0
  6
Continuous
 62
     7
370
    25
100
AcDbLine
 10
403.0703273495
 20
81.6012671595
 30
0.0
 11
400.0703273495
 21
81.6012671595
 31
0.0
  0
LINE
  5
103
330
1F
100
AcDbEntity
  8
0
  6
Continuous
 62
     7
370
    25
100
AcDbLine
 10
400.0703273495
 20
81.6012671595
 30
0.0
 11
400.0703273495
 21
73.5012671595
 31
0.0
  0
LINE
  5
104
330
1F
100
AcDbEntity
  8
0
  6
Continuous
 62
     7
370
    25
100
AcDbLine
 10
374.5453273495
 20
118.5012671595
 30
0.0
 11
374.5453273495
 21
111.0012671595
 31
0.0
  0
LINE
  5
105
330
1F
100
AcDbEntity
  8
0
  6
Continuous
 62
     7
370
    25
100
AcDbLine
 10
372.5703273495
 20
111.0012671595
 30
0.0
 11
374.5453273495
 21
111.0012671595
 31
0.0
  0
LINE
  5
106
330
1F
100
AcDbEntity
  8
0
  6
Continuous
 62
     7
370
    25
100
AcDbLine
 10
372.5703273495
 20
81.0012671595
 30
0.0
 11
372.5703273495
 21
111.0012671595
 31
0.0
  0
LINE
  5
107
330
1F
100
AcDbEntity
  8
0
  6
Continuous
 62
     7
370
    25
100
AcDbLine
 10
392.5703273495
 20
81.0012671595
 30
0.0
 11
372.5703273495
 21
81.0012671595
 31
0.0
  0
LINE
  5
108
330
1F
100
AcDbEntity
  8
0
  6
Continuous
 62
     7
370
    25
100
AcDbLine
 10
392.5703273495
 20
89.1012671595
 30
0.0
 11
392.5703273495
 21
81.0012671595
 31
0.0
  0
LINE
  5
109
330
1F
100
AcDbEntity
  8
0
  6
Continuous
 62
     7
370
    25
100
AcDbLine
 10
403.0703273495
 20
89.1012671595
 30
0.0
 11
392.5703273495
 21
89.1012671595
 31
0.0
  0
LINE
  5
10A
330
1F
100
AcDbEntity
  8
0
  6
Continuous
 62
     7
370
    25
100
AcDbLine
 10
404.0703273495
 20
88.1012671595
 30
0.0
 11
403.0703273495
 21
89.1012671595
 31
0.0
  0
LINE
  5
10B
330
1F
100
AcDbEntity
  8
0
  6
Continuous
 62
     7
370
    25
100
AcDbLine
 10
405.0703273495
 20
89.1012671595
 30
0.0
 11
404.0703273495
 21
88.1012671595
 31
0.0
  0
LINE
  5
10C
330
1F
100
AcDbEntity
  8
0
  6
Continuous
 62
     7
370
    25
100
AcDbLine
 10
424.8203273495
 20
89.1012671595
 30
0.0
 11
405.0703273495
 21
89.1012671595
 31
0.0
  0
LINE
  5
10D
330
1F
100
AcDbEntity
  8
0
  6
Continuous
 62
     7
370
    25
100
AcDbLine
 10
400.0703273495
 20
73.5012671595
 30
0.0
 11
365.0703273495
 21
73.5012671595
 31
0.0
  0
LINE
  5
10E
330
1F
100
AcDbEntity
  8
0
  6
Continuous
 62
     7
370
    25
100
AcDbLine
 10
365.0703273495
 20
73.5012671595
 30
0.0
 11
365.0703273495
 21
118.5012671595
 31
0.0
  0
LINE
  5
10F
330
1F
100
AcDbEntity
  8
0
  6
Continuous
 62
     7
370
    25
100
AcDbLine
 10
365.0703273495
 20
118.5012671595
 30
0.0
 11
374.5453273495
 21
118.5012671595
 31
0.0
  0
LINE
  5
110
330
1F
100
AcDbEntity
  8
0
  6
Continuous
 62
     7
370
    25
100
AcDbLine
 10
377.3453273495
 20
111.0012671595
 30
0.0
 11
377.3453273495
 21
118.5012671595
 31
0.0
  0
LINE
  5
111
330
1F
100
AcDbEntity
  8
0
  6
Continuous
 62
     7
370
    25
100
AcDbLine
 10
377.3453273495
 20
111.0012671595
 30
0.0
 11
374.5453273495
 21
111.0012671595
 31
0.0
  0
LINE
  5
112
330
1F
100
AcDbEntity
  8
0
  6
Continuous
 62
     7
370
    25
100
AcDbLine
 10
377.3453273495
 20
118.5012671595
 30
0.0
 11
374.5453273495
 21
118.5012671595
 31
0.0
  0
LINE
  5
113
330
1F
100
AcDbEntity
  8
0
  6
Continuous
 62
     7
370
    25
100
AcDbLine
 10
405.0703273495
 20
102.9012671595
 30
0.0
 11
404.0703273495
 21
103.9012671595
 31
0.0
  0
LINE
  5
114
330
1F
100
AcDbEntity
  8
0
  6
Continuous
 62
     7
370
    25
100
AcDbLine
 10
404.0703273495
 20
103.9012671595
 30
0.0
 11
403.0703273495
 21
102.9012671595
 31
0.0
  0
LINE
  5
115
330
1F
100
AcDbEntity
  8
0
  6
Continuous
 62
     7
370
    25
100
AcDbLine
 10
392.5703273495
 20
102.9012671595
 30
0.0
 11
403.0703273495
 21
102.9012671595
 31
0.0
  0
LINE
  5
116
330
1F
100
AcDbEntity
  8
0
  6
Continuous
 62
     7
370
    25
100
AcDbLine
 10
392.5703273495
 20
111.0012671595
 30
0.0
 11
392.5703273495
 21
102.9012671595
 31
0.0
  0
LINE
  5
117
330
1F
100
AcDbEntity
  8
0
  6
Continuous
 62
     7
370
    25
100
AcDbLine
 10
400.0703273495
 20
118.5012671595
 30
0.0
 11
400.0703273495
 21
110.4012671595
 31
0.0
  0
LINE
  5
118
330
1F
100
AcDbEntity
  8
0
  6
Continuous
 62
     7
370
    25
100
AcDbLine
 10
400.0703273495
 20
110.4012671595
 30
0.0
 11
403.0703273495
 21
110.4012671595
 31
0.0
  0
LINE
  5
119
330
1F
100
AcDbEntity
  8
0
  6
Continuous
 62
     7
370
    25
100
AcDbLine
 10
403.0703273495
 20
110.4012671595
 30
0.0
 11
404.0703273495
 21
109.4012671595
 31
0.0
  0
LINE
  5
11A
330
1F
100
AcDbEntity
  8
0
  6
Continuous
 62
     7
370
    25
100
AcDbLine
 10
404.0703273495
 20
109.4012671595
 30
0.0
 11
405.0703273495
 21
110.4012671595
 31
0.0
  0
LINE
  5
11B
330
1F
100
AcDbEntity
  8
0
  6
Continuous
 62
     7
370
    25
100
AcDbLine
 10
405.0703273495
 20
110.4012671595
 30
0.0
 11
427.0703273495
 21
110.4012671595
 31
0.0
  0
LINE
  5
11C
330
1F
100
AcDbEntity
  8
0
  6
Continuous
 62
     7
370
    25
100
AcDbLine
 10
427.0703273495
 20
110.4012671595
 30
0.0
 11
427.0703273495
 21
104.9012671595
 31
0.0
  0
LINE
  5
11D
330
1F
100
AcDbEntity
  8
0
  6
Continuous
 62
     7
370
    25
100
AcDbLine
 10
427.0703273495
 20
104.9012671595
 30
0.0
 11
424.8203273495
 21
104.9012671595
 31
0.0
  0
LINE
  5
11E
330
1F
100
AcDbEntity
  8
0
  6
Continuous
 62
     7
370
    25
100
AcDbLine
 10
424.8203273495
 20
102.9012671595
 30
0.0
 11
424.8203273495
 21
104.9012671595
 31
0.0
  0
LINE
  5
11F
330
1F
100
AcDbEntity
  8
0
  6
Continuous
 62
     7
370
    25
100
AcDbLine
 10
405.0703273495
 20
102.9012671595
 30
0.0
 11
424.8203273495
 21
102.9012671595
 31
0.0
  0
LINE
  5
120
330
1F
100
AcDbEntity
  8
0
  6
Continuous
 62
     7
370
    25
100
AcDbLine
 10
377.3453273495
 20
111.0012671595
 30
0.0
 11
392.5703273495
 21
111.0012671595
 31
0.0
  0
LINE
  5
121
330
1F
100
AcDbEntity
  8
0
  6
Continuous
 62
     7
370
    25
100
AcDbLine
 10
377.3453273495
 20
118.5012671595
 30
0.0
 11
400.0703273495
 21
118.5012671595
 31
0.0
  0
LINE
  5
122
330
1F
100
AcDbEntity
  8
0
  6
Continuous
 62
     7
370
    25
100
AcDbLine
 10
405.0703273495
 20
89.1012671595
 30
0.0
 11
403.0703273495
 21
89.1012671595
 31
0.0
  0
LINE
  5
123
330
1F
100
AcDbEntity
  8
0
  6
Continuous
 62
     7
370
    25
100
AcDbLine
 10
405.0703273495
 20
102.9012671595
 30
0.0
 11
403.0703273495
 21
102.9012671595
 31
0.0
  0
LINE
  5
124
330
1F
100
AcDbEntity
  8
0
  6
Continuous
 62
     7
370
    25
100
AcDbLine
 10
424.5203273495
 20
113.0012671595
 30
0.0
 11
424.5203273495
 21
118.5012671595
 31
0.0
  0
LINE
  5
125
330
1F
100
AcDbEntity
  8
0
  6
Continuous
 62
     7
370
    25
100
AcDbLine
 10
424.0203273495
 20
113.0012671595
 30
0.0
 11
424.5203273495
 21
113.0012671595
 31
0.0
  0
LINE
  5
126
330
1F
100
AcDbEntity
  8
0
  6
Continuous
 62
     7
370
    25
100
AcDbLine
 10
424.5203273495
 20
79.0012671595
 30
0.0
 11
424.0203273495
 21
79.0012671595
 31
0.0
  0
LINE
  5
127
330
1F
100
AcDbEntity
  8
0
  6
Continuous
 62
     7
370
    25
100
AcDbLine
 10
424.5203273495
 20
79.0012671595
 30
0.0
 11
424.5203273495
 21
73.5012671595
 31
0.0
  0
LINE
  5
128
330
1F
100
AcDbEntity
  8
0
  6
Continuous
 62
     7
370
    25
100
AcDbLine
 10
400.0703273495
 20
73.5012671595
 30
0.0
 11
424.5203273495
 21
73.5012671595
 31
0.0
  0
LINE
  5
129
330
1F
100
AcDbEntity
  8
0
  6
Continuous
 62
     7
370
    25
100
AcDbLine
 10
424.5203273495
 20
118.5012671595
 30
0.0
 11
400.0703273495
 21
118.5012671595
 31
0.0
  0
LINE
  5
12A
330
1F
100
AcDbEntity
  8
0
  6
Continuous
 62
     7
370
    25
100
AcDbLine
 10
424.0203273495
 20
79.0012671595
 30
0.0
 11
424.0203273495
 21
81.6012671595
 31
0.0
  0
LINE
  5
12B
330
1F
100
AcDbEntity
  8
0
  6
Continuous
 62
     7
370
    25
100
AcDbLine
 10
424.0203273495
 20
110.4012671595
 30
0.0
 11
424.0203273495
 21
113.0012671595
 31
0.0
  0
LINE
  5
12C
330
1F
100
AcDbEntity
  8
0
  6
Continuous
 62
     7
370
    25
100
AcDbLine
 10
414.7203273495
 20
102.9012671595
 30
0.0
 11
414.7203273495
 21
89.1012671595
 31
0.0
  0
LINE
  5
12D
330
1F
100
AcDbEntity
  8
0
  6
PHANTOM
 62
     1
370
    18
100
AcDbLine
 10
378.8557523128
 20
111.0012671595
 30
0.0
 11
378.8557523128
 21
81.0012671595
 31
0.0
  0
LINE
  5
12E
330
1F
100
AcDbEntity
  8
0
  6
PHANTOM
 62
     1
370
    18
100
AcDbLine
 10
408.4348894672
 20
89.1012671595
 30
0.0
 11
408.4348894672
 21
102.9012671595
 31
0.0
  0
HATCH
  5
12F
330
1F
100
AcDbEntity
  8
O-TEKST
  6
Continuous
370
    18
100
AcDbHatch
 10
0.0
 20
0.0
 30
0.0
210
0.0
220
0.0
230
1.0
  2
ANSI34
 70
     0
 71
     0
 91
        1
 92
        0
 93
       20
 72
     1
 10
424.8203273495249
 20
89.10126715945087
 11
405.0703273495248
 21
89.10126715945088
 72
     1
 10
405.0703273495248
 20
89.10126715945088
 11
404.0703273495248
 21
88.10126715945086
 72
     1
 10
404.0703273495248
 20
88.10126715945086
 11
403.0703273495248
 21
89.10126715945088
 72
     1
 10
403.0703273495248
 20
89.10126715945088
 11
392.5703273495248
 21
89.10126715945088
 72
     1
 10
392.5703273495248
 20
89.10126715945088
 11
392.5703273495248
 21
81.00126715945088
 72
     1
 10
392.5703273495248
 20
81.00126715945088
 11
372.5703273495249
 21
81.00126715945088
 72
     1
 10
372.5703273495249
 20
81.00126715945088
 11
372.5703273495249
 21
111.0012671594509
 72
     1
 10
372.5703273495249
 20
111.0012671594509
 11
374.5453273495248
 21
111.0012671594509
 72
     1
 10
374.5453273495248
 20
111.0012671594509
 11
374.5453273495248
 21
118.5012671594509
 72
     1
 10
374.5453273495248
 20
118.5012671594509
 11
365.0703273495248
 21
118.5012671594509
 72
     1
 10
365.0703273495248
 20
118.5012671594509
 11
365.0703273495248
 21
73.50126715945088
 72
     1
 10
365.0703273495248
 20
73.50126715945088
 11
400.0703273495248
 21
73.50126715945086
 72
     1
 10
400.0703273495248
 20
73.50126715945086
 11
400.0703273495248
 21
81.60126715945087
 72
     1
 10
400.0703273495248
 20
81.60126715945087
 11
403.0703273495248
 21
81.60126715945087
 72
     1
 10
403.0703273495248
 20
81.60126715945087
 11
404.0703273495248
 21
82.60126715945086
 72
     1
 10
404.0703273495248
 20
82.60126715945086
 11
405.0703273495248
 21
81.60126715945086
 72
     1
 10
405.0703273495248
 20
81.60126715945086
 11
427.0703273495247
 21
81.60126715945087
 72
     1
 10
427.0703273495247
 20
81.60126715945087
 11
427.0703273495247
 21
87.10126715945088
 72
     1
 10
427.0703273495247
 20
87.10126715945088
 11
424.8203273495249
 21
87.10126715945087
 72
     1
 10
424.8203273495249
 20
87.10126715945087
 11
424.8203273495249
 21
89.10126715945087
 97
        0
 75
     0
 76
     1
 52
0.0
 41
1.0
 77
     0
 78
     4
 53
45.0
 43
0.0
 44
0.0
 45
-13.47038418160373
 46
13.47038418160373
 79
     0
 53
45.0
 43
4.49013
 44
0.0
 45
-13.47038418160373
 46
13.47038418160373
 79
     0
 53
45.0
 43
8.98026
 44
0.0
 45
-13.47038418160373
 46
13.47038418160373
 79
     0
 53
45.0
 43
13.4704
 44
0.0
 45
-13.47038418160373
 46
13.47038418160373
 79
     0
 98
        1
 10
0.0
 20
0.0
  0
HATCH
  5
130
330
1F
100
AcDbEntity
  8
O-TEKST
  6
Continuous
370
    18
100
AcDbHatch
 10
0.0
 20
0.0
 30
0.0
210
0.0
220
0.0
230
1.0
  2
ANSI34
 70
     0
 71
     0
 91
        1
 92
        0
 93
       16
 72
     1
 10
405.0703273495249
 20
102.9012671594509
 11
424.8203273495249
 21
102.9012671594509
 72
     1
 10
424.8203273495249
 20
102.9012671594509
 11
424.8203273495249
 21
104.9012671594509
 72
     1
 10
424.8203273495249
 20
104.9012671594509
 11
427.0703273495247
 21
104.9012671594509
 72
     1
 10
427.0703273495247
 20
104.9012671594509
 11
427.0703273495247
 21
110.4012671594509
 72
     1
 10
427.0703273495247
 20
110.4012671594509
 11
405.0703273495248
 21
110.4012671594509
 72
     1
 10
405.0703273495248
 20
110.4012671594509
 11
404.0703273495248
 21
109.4012671594509
 72
     1
 10
404.0703273495248
 20
109.4012671594509
 11
403.0703273495248
 21
110.4012671594509
 72
     1
 10
403.0703273495248
 20
110.4012671594509
 11
400.0703273495248
 21
110.4012671594509
 72
     1
 10
400.0703273495248
 20
110.4012671594509
 11
400.0703273495248
 21
118.5012671594509
 72
     1
 10
400.0703273495248
 20
118.5012671594509
 11
377.3453273495248
 21
118.5012671594509
 72
     1
 10
377.3453273495248
 20
118.5012671594509
 11
377.3453273495248
 21
111.0012671594509
 72
     1
 10
377.3453273495248
 20
111.0012671594509
 11
392.5703273495248
 21
111.0012671594509
 72
     1
 10
392.5703273495248
 20
111.0012671594509
 11
392.5703273495248
 21
102.9012671594509
 72
     1
 10
392.5703273495248
 20
102.9012671594509
 11
403.0703273495248
 21
102.9012671594509
 72
     1
 10
403.0703273495248
 20
102.9012671594509
 11
404.0703273495248
 21
103.9012671594509
 72
     1
 10
404.0703273495248
 20
103.9012671594509
 11
405.0703273495249
 21
102.9012671594509
 97
        0
 75
     0
 76
     1
 52
0.0
 41
1.0
 77
     0
 78
     4
 53
45.0
 43
0.0
 44
0.0
 45
-13.47038418160373
 46
13.47038418160373
 79
     0
 53
45.0
 43
4.49013
 44
0.0
 45
-13.47038418160373
 46
13.47038418160373
 79
     0
 53
45.0
 43
8.98026
 44
0.0
 45
-13.47038418160373
 46
13.47038418160373
 79
     0
 53
45.0
 43
13.4704
 44
0.0
 45
-13.47038418160373
 46
13.47038418160373
 79
     0
 98
        1
 10
0.0
 20
0.0
  0
INSERT
  5
136
330
1F
100
AcDbEntity
  8
O-TEKST
100
AcDbBlockReference
  2
SW_NOTE_0
 10
374.5354336878
 20
56.467781019
 30
0.0
  0
LINE
  5
137
330
1F
100
AcDbEntity
  8
0
  6
Continuous
 62
     7
370
    25
100
AcDbLine
 10
175.1910506864
 20
195.5117212249
 30
0.0
 11
229.5910506864
 21
237.6617212249
 31
0.0
  0
LINE
  5
138
330
1F
100
AcDbEntity
  8
0
  6
Continuous
 62
     7
370
    25
100
AcDbLine
 10
164.0410506864
 20
195.5117212249
 30
0.0
 11
175.1910506864
 21
195.5117212249
 31
0.0
  0
LINE
  5
139
330
1F
100
AcDbEntity
  8
0
  6
Continuous
 62
     7
370
    25
100
AcDbLine
 10
164.0410506864
 20
195.5117212249
 30
0.0
 11
164.0410506864
 21
198.7533381203
 31
0.0
  0
LINE
  5
13A
330
1F
100
AcDbEntity
  8
0
  6
Continuous
 62
     7
370
    25
100
AcDbLine
 10
164.0410506864
 20
198.7533381203
 30
0.0
 11
162.3910506864
 21
199.0117212249
 31
0.0
  0
LINE
  5
13B
330
1F
100
AcDbEntity
  8
0
  6
Continuous
 62
     7
370
    25
100
AcDbLine
 10
162.3910506864
 20
203.0117212249
 30
0.0
 11
162.3910506864
 21
199.0117212249
 31
0.0
  0
ARC
  5
13C
330
1F
100
AcDbEntity
  8
0
  6
Continuous
 62
     7
370
    25
100
AcDbCircle
 10
162.3632092881
 20
233.0117083059
 30
0.0
 40
30.0
100
AcDbArc
 50
270.0531731615
 51
307.7691035954
  0
LINE
  5
13D
330
1F
100
AcDbEntity
  8
0
  6
Continuous
 62
     7
370
    25
100
AcDbLine
 10
218.9133191744
 20
238.8762833426
 30
0.0
 11
180.7376356348
 21
209.2971461882
 31
0.0
  0
ARC
  5
13E
330
1F
100
AcDbEntity
  8
0
  6
Continuous
 62
     7
370
    25
100
AcDbCircle
 10
237.2877455211
 20
215.1617212249
 30
0.0
 40
30.00000000000004
100
AcDbArc
 50
90.0
 51
127.7691035954
  0
LINE
  5
13F
330
1F
100
AcDbEntity
  8
0
  6
Continuous
 62
     7
370
    25
100
AcDbLine
 10
237.3910506864
 20
245.1617212249
 30
0.0
 11
237.2877455211
 21
245.1617212249
 31
0.0
  0
LINE
  5
140
330
1F
100
AcDbEntity
  8
0
  6
Continuous
 62
     7
370
    25
100
AcDbLine
 10
237.3910506864
 20
237.6617212249
 30
0.0
 11
237.3910506864
 21
245.1617212249
 31
0.0
  0
LINE
  5
141
330
1F
100
AcDbEntity
  8
0
  6
Continuous
 62
     7
370
    25
100
AcDbLine
 10
229.5910506864
 20
237.6617212249
 30
0.0
 11
237.3910506864
 21
237.6617212249
 31
0.0
  0
LINE
  5
142
330
1F
100
AcDbEntity
  8
0
  6
Continuous
 62
     7
370
    25
100
AcDbLine
 10
162.3910506864
 20
254.4617212249
 30
0.0
 11
162.3910506864
 21
227.5117212249
 31
0.0
  0
LINE
  5
143
330
1F
100
AcDbEntity
  8
0
  6
Continuous
 62
     7
370
    25
100
AcDbLine
 10
167.3910506864
 20
254.4617212249
 30
0.0
 11
162.3910506864
 21
254.4617212249
 31
0.0
  0
LINE
  5
144
330
1F
100
AcDbEntity
  8
0
  6
Continuous
 62
     7
370
    25
100
AcDbLine
 10
167.3910506864
 20
227.5117212249
 30
0.0
 11
167.3910506864
 21
254.4617212249
 31
0.0
  0
LINE
  5
145
330
1F
100
AcDbEntity
  8
0
  6
Continuous
 62
     7
370
    25
100
AcDbLine
 10
162.3910506864
 20
227.5117212249
 30
0.0
 11
167.3910506864
 21
227.5117212249
 31
0.0
  0
LINE
  5
146
330
1F
100
AcDbEntity
  8
0
  6
Continuous
 62
     7
370
    25
100
AcDbLine
 10
162.3910506864
 20
227.0117212249
 30
0.0
 11
164.0410506864
 21
227.2533381203
 31
0.0
  0
LINE
  5
147
330
1F
100
AcDbEntity
  8
0
  6
Continuous
 62
     7
370
    25
100
AcDbLine
 10
167.3910506864
 20
254.4617212249
 30
0.0
 11
237.3910506864
 21
254.4617212249
 31
0.0
  0
LINE
  5
148
330
1F
100
AcDbEntity
  8
0
  6
Continuous
 62
     7
370
    25
100
AcDbLine
 10
237.3910506864
 20
245.1617212249
 30
0.0
 11
237.3910506864
 21
254.4617212249
 31
0.0
  0
LINE
  5
149
330
1F
100
AcDbEntity
  8
0
  6
Continuous
 62
     7
370
    25
100
AcDbLine
 10
164.0410506864
 20
227.2533381203
 30
0.0
 11
164.0410506864
 21
227.5117212249
 31
0.0
  0
LINE
  5
14A
330
1F
100
AcDbEntity
  8
0
  6
Continuous
 62
     7
370
    25
100
AcDbLine
 10
162.3910506864
 20
223.0117212249
 30
0.0
 11
162.3910506864
 21
203.0117212249
 31
0.0
  0
LINE
  5
14B
330
1F
100
AcDbEntity
  8
0
  6
Continuous
 62
     7
370
    25
100
AcDbLine
 10
237.3910506864
 20
254.9617212249
 30
0.0
 11
164.0410506864
 21
254.9617212249
 31
0.0
  0
LINE
  5
14C
330
1F
100
AcDbEntity
  8
0
  6
Continuous
 62
     7
370
    25
100
AcDbLine
 10
237.3910506864
 20
254.4617212249
 30
0.0
 11
237.3910506864
 21
254.9617212249
 31
0.0
  0
LINE
  5
14D
330
1F
100
AcDbEntity
  8
0
  6
Continuous
 62
     7
370
    25
100
AcDbLine
 10
39.1443558517
 20
245.1617212249
 30
0.0
 11
39.0410506864
 21
245.1617212249
 31
0.0
  0
ARC
  5
14E
330
1F
100
AcDbEntity
  8
0
  6
Continuous
 62
     7
370
    25
100
AcDbCircle
 10
39.1443558517
 20
215.1617212249
 30
0.0
 40
30.00000000000003
100
AcDbArc
 50
52.2308964046
 51
90.0
  0
LINE
  5
14F
330
1F
100
AcDbEntity
  8
0
  6
Continuous
 62
     7
370
    25
100
AcDbLine
 10
95.694465738
 20
209.2971461882
 30
0.0
 11
57.5187821983
 21
238.8762833426
 31
0.0
  0
ARC
  5
150
330
1F
100
AcDbEntity
  8
0
  6
Continuous
 62
     7
370
    25
100
AcDbCircle
 10
114.0688920846
 20
233.0117083059
 30
0.0
 40
30.00000000000006
100
AcDbArc
 50
232.2308964046
 51
266.7938860638
  0
LINE
  5
151
330
1F
100
AcDbEntity
  8
0
  6
Continuous
 62
     7
370
    25
100
AcDbLine
 10
112.3910506864
 20
203.0586642495
 30
0.0
 11
112.3910506864
 21
198.7701043296
 31
0.0
  0
LINE
  5
152
330
1F
100
AcDbEntity
  8
0
  6
Continuous
 62
     7
370
    25
100
AcDbLine
 10
114.0410506864
 20
198.5117212249
 30
0.0
 11
112.3910506864
 21
198.7701043296
 31
0.0
  0
LINE
  5
153
330
1F
100
AcDbEntity
  8
0
  6
Continuous
 62
     7
370
    25
100
AcDbLine
 10
114.0410506864
 20
195.5117212249
 30
0.0
 11
114.0410506864
 21
198.5117212249
 31
0.0
  0
LINE
  5
154
330
1F
100
AcDbEntity
  8
0
  6
Continuous
 62
     7
370
    25
100
AcDbLine
 10
101.2410506864
 20
195.5117212249
 30
0.0
 11
114.0410506864
 21
195.5117212249
 31
0.0
  0
LINE
  5
155
330
1F
100
AcDbEntity
  8
0
  6
Continuous
 62
     7
370
    25
100
AcDbLine
 10
46.8410506864
 20
237.6617212249
 30
0.0
 11
101.2410506864
 21
195.5117212249
 31
0.0
  0
LINE
  5
156
330
1F
100
AcDbEntity
  8
0
  6
Continuous
 62
     7
370
    25
100
AcDbLine
 10
39.0410506864
 20
237.6617212249
 30
0.0
 11
46.8410506864
 21
237.6617212249
 31
0.0
  0
LINE
  5
157
330
1F
100
AcDbEntity
  8
0
  6
Continuous
 62
     7
370
    25
100
AcDbLine
 10
39.0410506864
 20
245.1617212249
 30
0.0
 11
39.0410506864
 21
237.6617212249
 31
0.0
  0
LINE
  5
158
330
1F
100
AcDbEntity
  8
0
  6
Continuous
 62
     7
370
    25
100
AcDbLine
 10
109.0410506864
 20
254.4617212249
 30
0.0
 11
112.3910506864
 21
254.4617212249
 31
0.0
  0
LINE
  5
159
330
1F
100
AcDbEntity
  8
0
  6
Continuous
 62
     7
370
    25
100
AcDbLine
 10
112.3910506864
 20
254.4617212249
 30
0.0
 11
112.3910506864
 21
227.5117212249
 31
0.0
  0
LINE
  5
15A
330
1F
100
AcDbEntity
  8
0
  6
Continuous
 62
     7
370
    25
100
AcDbLine
 10
112.3910506864
 20
227.5117212249
 30
0.0
 11
109.0410506864
 21
227.5117212249
 31
0.0
  0
LINE
  5
15B
330
1F
100
AcDbEntity
  8
0
  6
Continuous
 62
     7
370
    25
100
AcDbLine
 10
109.0410506864
 20
227.5117212249
 30
0.0
 11
109.0410506864
 21
254.4617212249
 31
0.0
  0
CIRCLE
  5
15C
330
1F
100
AcDbEntity
  8
0
  6
Continuous
 62
     7
370
    25
100
AcDbCircle
 10
104.99052732
 20
206.3367212249
 30
0.0
 40
1.625
  0
LINE
  5
15D
330
1F
100
AcDbEntity
  8
0
  6
Continuous
 62
     7
370
    25
100
AcDbLine
 10
109.0410506864
 20
254.4617212249
 30
0.0
 11
39.0410506864
 21
254.4617212249
 31
0.0
  0
LINE
  5
15E
330
1F
100
AcDbEntity
  8
0
  6
Continuous
 62
     7
370
    25
100
AcDbLine
 10
39.0410506864
 20
245.1617212249
 30
0.0
 11
39.0410506864
 21
254.4617212249
 31
0.0
  0
LINE
  5
15F
330
1F
100
AcDbEntity
  8
0
  6
Continuous
 62
     7
370
    25
100
AcDbLine
 10
112.3910506864
 20
223.0117212249
 30
0.0
 11
112.3910506864
 21
203.0586642495
 31
0.0
  0
LINE
  5
160
330
1F
100
AcDbEntity
  8
0
  6
Continuous
 62
     7
370
    25
100
AcDbLine
 10
112.3910506864
 20
254.9617212249
 30
0.0
 11
39.0410506864
 21
254.9617212249
 31
0.0
  0
LINE
  5
161
330
1F
100
AcDbEntity
  8
0
  6
Continuous
 62
     7
370
    25
100
AcDbLine
 10
39.0410506864
 20
254.4617212249
 30
0.0
 11
39.0410506864
 21
254.9617212249
 31
0.0
  0
LINE
  5
162
330
1F
100
AcDbEntity
  8
0
  6
Continuous
 62
     7
370
    25
100
AcDbLine
 10
114.0410506864
 20
195.5117212249
 30
0.0
 11
164.0410506864
 21
195.5117212249
 31
0.0
  0
LINE
  5
163
330
1F
100
AcDbEntity
  8
0
  6
Continuous
 62
     7
370
    25
100
AcDbLine
 10
114.0410506864
 20
195.5117212249
 30
0.0
 11
114.0410506864
 21
198.7621821864
 31
0.0
  0
LINE
  5
164
330
1F
100
AcDbEntity
  8
0
  6
Continuous
 62
     7
370
    25
100
AcDbLine
 10
112.3910506864
 20
199.0117212249
 30
0.0
 11
114.0410506864
 21
198.7621821864
 31
0.0
  0
LINE
  5
165
330
1F
100
AcDbEntity
  8
0
  6
Continuous
 62
     7
370
    25
100
AcDbLine
 10
112.3910506864
 20
199.0117212249
 30
0.0
 11
112.3910506864
 21
203.0117212249
 31
0.0
  0
LINE
  5
166
330
1F
100
AcDbEntity
  8
0
  6
Continuous
 62
     7
370
    25
100
AcDbLine
 10
112.3910506864
 20
203.0117212249
 30
0.0
 11
162.3910506864
 21
203.0117212249
 31
0.0
  0
LINE
  5
167
330
1F
100
AcDbEntity
  8
0
  6
Continuous
 62
     7
370
    25
100
AcDbLine
 10
162.3910506864
 20
203.0117212249
 30
0.0
 11
162.3910506864
 21
198.7612602635
 31
0.0
  0
LINE
  5
168
330
1F
100
AcDbEntity
  8
0
  6
Continuous
 62
     7
370
    25
100
AcDbLine
 10
164.0410506864
 20
198.5117212249
 30
0.0
 11
162.3910506864
 21
198.7612602635
 31
0.0
  0
LINE
  5
169
330
1F
100
AcDbEntity
  8
0
  6
Continuous
 62
     7
370
    25
100
AcDbLine
 10
164.0410506864
 20
195.5117212249
 30
0.0
 11
164.0410506864
 21
198.5117212249
 31
0.0
  0
LINE
  5
16A
330
1F
100
AcDbEntity
  8
0
  6
Continuous
 62
     7
370
    25
100
AcDbLine
 10
112.3910506864
 20
234.5117212249
 30
0.0
 11
162.3910506864
 21
234.5117212249
 31
0.0
  0
LINE
  5
16B
330
1F
100
AcDbEntity
  8
0
  6
Continuous
 62
     7
370
    25
100
AcDbLine
 10
112.3910506864
 20
233.5117212249
 30
0.0
 11
162.3910506864
 21
233.5117212249
 31
0.0
  0
LINE
  5
16C
330
1F
100
AcDbEntity
  8
0
  6
Continuous
 62
     7
370
    25
100
AcDbLine
 10
162.3910506864
 20
223.0117212249
 30
0.0
 11
112.3910506864
 21
223.0117212249
 31
0.0
  0
LINE
  5
16D
330
1F
100
AcDbEntity
  8
0
  6
Continuous
 62
     7
370
    25
100
AcDbLine
 10
162.3910506864
 20
223.0117212249
 30
0.0
 11
162.3910506864
 21
233.5117212249
 31
0.0
  0
LINE
  5
16E
330
1F
100
AcDbEntity
  8
0
  6
Continuous
 62
     7
370
    25
100
AcDbLine
 10
112.3910506864
 20
223.0117212249
 30
0.0
 11
112.3910506864
 21
233.5117212249
 31
0.0
  0
LINE
  5
16F
330
1F
100
AcDbEntity
  8
0
  6
Continuous
 62
     7
370
    25
100
AcDbLine
 10
112.3910506864
 20
235.5117212249
 30
0.0
 11
162.3910506864
 21
235.5117212249
 31
0.0
  0
LINE
  5
170
330
1F
100
AcDbEntity
  8
0
  6
Continuous
 62
     7
370
    25
100
AcDbLine
 10
162.3910506864
 20
255.2617212249
 30
0.0
 11
112.3910506864
 21
255.2617212249
 31
0.0
  0
LINE
  5
171
330
1F
100
AcDbEntity
  8
0
  6
Continuous
 62
     7
370
    25
100
AcDbLine
 10
162.3910506864
 20
235.5117212249
 30
0.0
 11
162.3910506864
 21
255.2617212249
 31
0.0
  0
LINE
  5
172
330
1F
100
AcDbEntity
  8
0
  6
Continuous
 62
     7
370
    25
100
AcDbLine
 10
112.3910506864
 20
235.5117212249
 30
0.0
 11
112.3910506864
 21
255.2617212249
 31
0.0
  0
LINE
  5
173
330
1F
100
AcDbEntity
  8
0
  6
Continuous
 62
     7
370
    25
100
AcDbLine
 10
162.3910506864
 20
257.5117212249
 30
0.0
 11
112.3910506864
 21
257.5117212249
 31
0.0
  0
LINE
  5
174
330
1F
100
AcDbEntity
  8
0
  6
Continuous
 62
     7
370
    25
100
AcDbLine
 10
162.3910506864
 20
257.5117212249
 30
0.0
 11
162.3910506864
 21
255.2617212249
 31
0.0
  0
LINE
  5
175
330
1F
100
AcDbEntity
  8
0
  6
Continuous
 62
     7
370
    25
100
AcDbLine
 10
112.3910506864
 20
255.2617212249
 30
0.0
 11
112.3910506864
 21
257.5117212249
 31
0.0
  0
LINE
  5
176
330
1F
100
AcDbEntity
  8
0
  6
Continuous
 62
     7
370
    25
100
AcDbLine
 10
162.3910506864
 20
227.2621821864
 30
0.0
 11
164.0410506864
 21
227.5117212249
 31
0.0
  0
LINE
  5
177
330
1F
100
AcDbEntity
  8
0
  6
Continuous
 62
     7
370
    25
100
AcDbLine
 10
162.3910506864
 20
257.5117212249
 30
0.0
 11
164.0410506864
 21
257.5117212249
 31
0.0
  0
LINE
  5
178
330
1F
100
AcDbEntity
  8
0
  6
Continuous
 62
     7
370
    25
100
AcDbLine
 10
164.0410506864
 20
254.4617212249
 30
0.0
 11
164.0410506864
 21
257.5117212249
 31
0.0
  0
CIRCLE
  5
179
330
1F
100
AcDbEntity
  8
0
  6
Continuous
 62
     7
370
    25
100
AcDbCircle
 10
138.2160506864
 20
206.3867212249
 30
0.0
 40
1.624999999999972
  0
HATCH
  5
17A
330
1F
100
AcDbEntity
  8
O-TEKST
  6
Continuous
370
    18
100
AcDbHatch
 10
0.0
 20
0.0
 30
0.0
210
0.0
220
0.0
230
1.0
  2
ANSI34
 70
     0
 71
     0
 91
        1
 92
        0
 93
        8
 72
     1
 10
164.0410506863781
 20
195.5117212249207
 11
164.0410506863781
 21
198.5117212249208
 72
     1
 10
164.0410506863781
 20
198.5117212249208
 11
162.3910506863781
 21
198.7612602634662
 72
     1
 10
162.3910506863781
 20
198.7612602634662
 11
162.3910506863781
 21
203.0117212249208
 72
     1
 10
162.3910506863781
 20
203.0117212249208
 11
112.3910506863781
 21
203.0117212249208
 72
     1
 10
112.3910506863781
 20
203.0117212249208
 11
112.3910506863781
 21
199.0117212249208
 72
     1
 10
112.3910506863781
 20
199.0117212249208
 11
114.0410506863781
 21
198.7621821863753
 72
     1
 10
114.0410506863781
 20
198.7621821863753
 11
114.0410506863781
 21
195.5117212249207
 72
     1
 10
114.0410506863781
 20
195.5117212249207
 11
164.0410506863781
 21
195.5117212249207
 97
        0
 75
     0
 76
     1
 52
0.0
 41
1.0
 77
     0
 78
     4
 53
45.0
 43
0.0
 44
0.0
 45
-13.47038418160373
 46
13.47038418160373
 79
     0
 53
45.0
 43
4.49013
 44
0.0
 45
-13.47038418160373
 46
13.47038418160373
 79
     0
 53
45.0
 43
8.98026
 44
0.0
 45
-13.47038418160373
 46
13.47038418160373
 79
     0
 53
45.0
 43
13.4704
 44
0.0
 45
-13.47038418160373
 46
13.47038418160373
 79
     0
 98
        1
 10
0.0
 20
0.0
  0
HATCH
  5
17B
330
1F
100
AcDbEntity
  8
O-TEKST
  6
Continuous
370
    18
100
AcDbHatch
 10
0.0
 20
0.0
 30
0.0
210
0.0
220
0.0
230
1.0
  2
ANSI34
 70
     0
 71
     0
 91
        1
 92
        0
 93
       11
 72
     1
 10
39.04105068637762
 20
245.1617212249211
 11
39.04105068637762
 21
237.6617212249211
 72
     1
 10
39.04105068637762
 20
237.6617212249211
 11
46.84105068637783
 21
237.661721224921
 72
     1
 10
46.84105068637783
 20
237.661721224921
 11
101.2410506863781
 21
195.5117212249207
 72
     1
 10
101.2410506863781
 20
195.5117212249207
 11
114.041050686378
 21
195.5117212249207
 72
     1
 10
114.041050686378
 20
195.5117212249207
 11
114.0410506863781
 21
198.5117212249208
 72
     1
 10
114.0410506863781
 20
198.5117212249208
 11
112.3910506863781
 21
198.7701043295779
 72
     1
 10
112.3910506863781
 20
198.7701043295779
 11
112.3910506863781
 21
203.0586642494985
 72
     2
 10
114.0688920846155
 20
233.0117083058605
 40
30.0
 50
93.20611393615678
 51
127.7691035953739
 73
     0
 72
     1
 10
95.69446573795537
 20
209.2971461882256
 11
57.51878219832155
 21
238.8762833425559
 72
     2
 10
39.14435585166146
 20
215.1617212249209
 40
30.0
 50
52.2308964046263
 51
90.0
 73
     1
 72
     1
 10
39.14435585166146
 20
245.161721224921
 11
39.04105068637762
 21
245.1617212249211
 97
        0
 75
     0
 76
     1
 52
90.0
 41
1.0
 77
     0
 78
     4
 53
135.0000000000002
 43
0.0
 44
0.0
 45
-13.47038418160369
 46
-13.47038418160378
 79
     0
 53
135.0000000000002
 43
-0.0000000000000157
 44
4.49013
 45
-13.47038418160369
 46
-13.47038418160378
 79
     0
 53
135.0000000000002
 43
-0.0000000000000314
 44
8.98026
 45
-13.47038418160369
 46
-13.47038418160378
 79
     0
 53
135.0000000000002
 43
-0.000000000000047
 44
13.4704
 45
-13.47038418160369
 46
-13.47038418160378
 79
     0
 98
        1
 10
0.0
 20
0.0
  0
HATCH
  5
17C
330
1F
100
AcDbEntity
  8
O-TEKST
  6
Continuous
370
    18
100
AcDbHatch
 10
0.0
 20
0.0
 30
0.0
210
0.0
220
0.0
230
1.0
  2
ANSI34
 70
     0
 71
     0
 91
        1
 92
        0
 93
       11
 72
     1
 10
229.5910506863781
 20
237.6617212249207
 11
237.3910506863781
 21
237.6617212249207
 72
     1
 10
237.3910506863781
 20
237.6617212249207
 11
237.3910506863781
 21
245.1617212249207
 72
     1
 10
237.3910506863781
 20
245.1617212249207
 11
237.2877455210945
 21
245.1617212249207
 72
     2
 10
237.2877455210945
 20
215.1617212249207
 40
30.0
 50
90.0
 51
127.7691035953738
 73
     1
 72
     1
 10
218.9133191744344
 20
238.8762833425556
 11
180.7376356348007
 21
209.2971461882255
 72
     2
 10
162.3632092881406
 20
233.0117083058604
 40
30.0
 50
52.23089640462621
 51
89.94682683854224
 73
     0
 72
     1
 10
162.3910506863781
 20
203.0117212249208
 11
162.3910506863781
 21
199.0117212249208
 72
     1
 10
162.3910506863781
 20
199.0117212249208
 11
164.0410506863781
 21
198.7533381202636
 72
     1
 10
164.0410506863781
 20
198.7533381202636
 11
164.0410506863781
 21
195.5117212249207
 72
     1
 10
164.0410506863781
 20
195.5117212249207
 11
175.1910506863781
 21
195.5117212249207
 72
     1
 10
175.1910506863781
 20
195.5117212249207
 11
229.5910506863781
 21
237.6617212249207
 97
        0
 75
     0
 76
     1
 52
90.0
 41
1.0
 77
     0
 78
     4
 53
135.0000000000002
 43
0.0
 44
0.0
 45
-13.47038418160369
 46
-13.47038418160378
 79
     0
 53
135.0000000000002
 43
-0.0000000000000157
 44
4.49013
 45
-13.47038418160369
 46
-13.47038418160378
 79
     0
 53
135.0000000000002
 43
-0.0000000000000314
 44
8.98026
 45
-13.47038418160369
 46
-13.47038418160378
 79
     0
 53
135.0000000000002
 43
-0.000000000000047
 44
13.4704
 45
-13.47038418160369
 46
-13.47038418160378
 79
     0
 98
        1
 10
0.0
 20
0.0
  0
INSERT
  5
182
330
1F
100
AcDbEntity
  8
O-TEKST
100
AcDbBlockReference
  2
SW_NOTE_1
 10
117.4540728052
 20
177.9258181913
 30
0.0
  0
LINE
  5
183
330
1F
100
AcDbEntity
  8
0
  6
Continuous
 62
     7
370
    25
100
AcDbLine
 10
237.3910506864
 20
376.9935058078
 30
0.0
 11
237.3910506864
 21
394.2935058078
 31
0.0
  0
LINE
  5
184
330
1F
100
AcDbEntity
  8
0
  6
Continuous
 62
     7
370
    25
100
AcDbLine
 10
237.3910506864
 20
394.2935058078
 30
0.0
 11
164.0410506864
 21
394.2935058078
 31
0.0
  0
LINE
  5
185
330
1F
100
AcDbEntity
  8
0
  6
Continuous
 62
     7
370
    25
100
AcDbLine
 10
229.5910506864
 20
376.9935058078
 30
0.0
 11
237.3910506864
 21
376.9935058078
 31
0.0
  0
LINE
  5
186
330
1F
100
AcDbEntity
  8
0
  6
Continuous
 62
     7
370
    25
100
AcDbLine
 10
164.0410506864
 20
334.8435058078
 30
0.0
 11
164.0410506864
 21
394.2935058078
 31
0.0
  0
CIRCLE
  5
187
330
1F
100
AcDbEntity
  8
0
  6
Continuous
 62
     7
370
    25
100
AcDbCircle
 10
171.4415740527
 20
345.6685058078
 30
0.0
 40
1.625
  0
LINE
  5
188
330
1F
100
AcDbEntity
  8
0
  6
Continuous
 62
     7
370
    25
100
AcDbLine
 10
175.1910506864
 20
334.8435058078
 30
0.0
 11
229.5910506864
 21
376.9935058078
 31
0.0
  0
LINE
  5
189
330
1F
100
AcDbEntity
  8
0
  6
Continuous
 62
     7
370
    25
100
AcDbLine
 10
164.0410506864
 20
334.8435058078
 30
0.0
 11
175.1910506864
 21
334.8435058078
 31
0.0
  0
CIRCLE
  5
18A
330
1F
100
AcDbEntity
  8
0
  6
Continuous
 62
     7
370
    25
100
AcDbCircle
 10
207.8910506864
 20
367.7935058078
 30
0.0
 40
2.0
  0
CIRCLE
  5
18B
330
1F
100
AcDbEntity
  8
0
  6
Continuous
 62
     7
370
    25
100
AcDbCircle
 10
178.3910506864
 20
367.7935058078
 30
0.0
 40
2.0
  0
LINE
  5
18C
330
1F
100
AcDbEntity
  8
0
  6
Continuous
 62
     7
370
    25
100
AcDbLine
 10
101.2410506864
 20
334.8435058078
 30
0.0
 11
46.8410506864
 21
376.9935058078
 31
0.0
  0
LINE
  5
18D
330
1F
100
AcDbEntity
  8
0
  6
Continuous
 62
     7
370
    25
100
AcDbLine
 10
46.8410506864
 20
376.9935058078
 30
0.0
 11
39.0410506864
 21
376.9935058078
 31
0.0
  0
LINE
  5
18E
330
1F
100
AcDbEntity
  8
0
  6
Continuous
 62
     7
370
    25
100
AcDbLine
 10
114.0410506864
 20
394.2935058078
 30
0.0
 11
114.0410506864
 21
334.8435058078
 31
0.0
  0
LINE
  5
18F
330
1F
100
AcDbEntity
  8
0
  6
Continuous
 62
     7
370
    25
100
AcDbLine
 10
39.0410506864
 20
376.9935058078
 30
0.0
 11
39.0410506864
 21
394.2935058078
 31
0.0
  0
LINE
  5
190
330
1F
100
AcDbEntity
  8
0
  6
Continuous
 62
     7
370
    25
100
AcDbLine
 10
114.0410506864
 20
334.8435058078
 30
0.0
 11
101.2410506864
 21
334.8435058078
 31
0.0
  0
LINE
  5
191
330
1F
100
AcDbEntity
  8
0
  6
Continuous
 62
     7
370
    25
100
AcDbLine
 10
39.0410506864
 20
394.2935058078
 30
0.0
 11
114.0410506864
 21
394.2935058078
 31
0.0
  0
CIRCLE
  5
192
330
1F
100
AcDbEntity
  8
0
  6
Continuous
 62
     7
370
    25
100
AcDbCircle
 10
68.5410506864
 20
367.7935058078
 30
0.0
 40
2.000000000000028
  0
CIRCLE
  5
193
330
1F
100
AcDbEntity
  8
0
  6
Continuous
 62
     7
370
    25
100
AcDbCircle
 10
98.0410506864
 20
367.7935058078
 30
0.0
 40
2.000000000000028
  0
LINE
  5
194
330
1F
100
AcDbEntity
  8
0
  6
Continuous
 62
     7
370
    25
100
AcDbLine
 10
164.0410506864
 20
369.8435058078
 30
0.0
 11
114.0410506864
 21
369.8435058078
 31
0.0
  0
LINE
  5
195
330
1F
100
AcDbEntity
  8
0
  6
Continuous
 62
     7
370
    25
100
AcDbLine
 10
164.0410506864
 20
334.8435058078
 30
0.0
 11
114.0410506864
 21
334.8435058078
 31
0.0
  0
LINE
  5
196
330
1F
100
AcDbEntity
  8
0
  6
Continuous
 62
     7
370
    25
100
AcDbLine
 10
114.0410506864
 20
334.8435058078
 30
0.0
 11
114.0410506864
 21
369.8435058078
 31
0.0
  0
LINE
  5
197
330
1F
100
AcDbEntity
  8
0
  6
Continuous
 62
     7
370
    25
100
AcDbLine
 10
164.0410506864
 20
369.8435058078
 30
0.0
 11
164.0410506864
 21
334.8435058078
 31
0.0
  0
LINE
  5
198
330
1F
100
AcDbEntity
  8
0
  6
Continuous
 62
     7
370
    25
100
AcDbLine
 10
114.0410506864
 20
372.8435058078
 30
0.0
 11
164.0410506864
 21
372.8435058078
 31
0.0
  0
LINE
  5
199
330
1F
100
AcDbEntity
  8
0
  6
Continuous
 62
     7
370
    25
100
AcDbLine
 10
114.0410506864
 20
373.8435058078
 30
0.0
 11
164.0410506864
 21
373.8435058078
 31
0.0
  0
LINE
  5
19A
330
1F
100
AcDbEntity
  8
0
  6
Continuous
 62
     7
370
    25
100
AcDbLine
 10
114.0410506864
 20
374.8435058078
 30
0.0
 11
164.0410506864
 21
374.8435058078
 31
0.0
  0
LINE
  5
19B
330
1F
100
AcDbEntity
  8
0
  6
Continuous
 62
     7
370
    25
100
AcDbLine
 10
164.0410506864
 20
396.8435058078
 30
0.0
 11
114.0410506864
 21
396.8435058078
 31
0.0
  0
LINE
  5
19C
330
1F
100
AcDbEntity
  8
0
  6
Continuous
 62
     7
370
    25
100
AcDbLine
 10
114.0410506864
 20
394.2935058078
 30
0.0
 11
114.0410506864
 21
396.8435058078
 31
0.0
  0
LINE
  5
19D
330
1F
100
AcDbEntity
  8
0
  6
Continuous
 62
     7
370
    25
100
AcDbLine
 10
164.0410506864
 20
396.8435058078
 30
0.0
 11
164.0410506864
 21
394.2935058078
 31
0.0
  0
LINE
  5
19E
330
1F
100
AcDbEntity
  8
0
  6
Continuous
 62
     7
370
    25
100
AcDbLine
 10
112.3910506864
 20
396.8435058078
 30
0.0
 11
114.0410506864
 21
396.8435058078
 31
0.0
  0
LINE
  5
19F
330
1F
100
AcDbEntity
  8
0
  6
Continuous
 62
     7
370
    25
100
AcDbLine
 10
112.3910506864
 20
396.8435058078
 30
0.0
 11
112.3910506864
 21
394.2935058078
 31
0.0
  0
LINE
  5
1A0
330
1F
100
AcDbEntity
  8
0
  6
Continuous
 62
     7
370
    25
100
AcDbLine
 10
554.9210665259
 20
118.5012671595
 30
0.0
 11
554.9210665259
 21
73.5012671595
 31
0.0
  0
LINE
  5
1A1
330
1F
100
AcDbEntity
  8
0
  6
Continuous
 62
     7
370
    25
100
AcDbLine
 10
572.2210665259
 20
118.5012671595
 30
0.0
 11
572.2210665259
 21
113.0012671595
 31
0.0
  0
LINE
  5
1A2
330
1F
100
AcDbEntity
  8
0
  6
Continuous
 62
     7
370
    25
100
AcDbLine
 10
571.7210665259
 20
113.0012671595
 30
0.0
 11
572.2210665259
 21
113.0012671595
 31
0.0
  0
LINE
  5
1A3
330
1F
100
AcDbEntity
  8
0
  6
Continuous
 62
     7
370
    25
100
AcDbLine
 10
571.7210665259
 20
113.0012671595
 30
0.0
 11
571.7210665259
 21
111.0012671595
 31
0.0
  0
LINE
  5
1A4
330
1F
100
AcDbEntity
  8
0
  6
Continuous
 62
     7
370
    25
100
AcDbLine
 10
562.4210665259
 20
81.0012671595
 30
0.0
 11
562.4210665259
 21
111.0012671595
 31
0.0
  0
LINE
  5
1A5
330
1F
100
AcDbEntity
  8
0
  6
Continuous
 62
     7
370
    25
100
AcDbLine
 10
571.7210665259
 20
81.0012671595
 30
0.0
 11
571.7210665259
 21
79.0012671595
 31
0.0
  0
LINE
  5
1A6
330
1F
100
AcDbEntity
  8
0
  6
Continuous
 62
     7
370
    25
100
AcDbLine
 10
571.7210665259
 20
79.0012671595
 30
0.0
 11
572.2210665259
 21
79.0012671595
 31
0.0
  0
LINE
  5
1A7
330
1F
100
AcDbEntity
  8
0
  6
Continuous
 62
     7
370
    25
100
AcDbLine
 10
572.2210665259
 20
79.0012671595
 30
0.0
 11
572.2210665259
 21
73.5012671595
 31
0.0
  0
LINE
  5
1A8
330
1F
100
AcDbEntity
  8
0
  6
Continuous
 62
     7
370
    25
100
AcDbLine
 10
562.4210665259
 20
111.0012671595
 30
0.0
 11
571.7210665259
 21
111.0012671595
 31
0.0
  0
LINE
  5
1A9
330
1F
100
AcDbEntity
  8
0
  6
Continuous
 62
     7
370
    25
100
AcDbLine
 10
562.4210665259
 20
81.0012671595
 30
0.0
 11
571.7210665259
 21
81.0012671595
 31
0.0
  0
LINE
  5
1AA
330
1F
100
AcDbEntity
  8
0
  6
Continuous
 62
     7
370
    25
100
AcDbLine
 10
554.9210665259
 20
118.5012671595
 30
0.0
 11
572.2210665259
 21
118.5012671595
 31
0.0
  0
LINE
  5
1AB
330
1F
100
AcDbEntity
  8
0
  6
Continuous
 62
     7
370
    25
100
AcDbLine
 10
554.9210665259
 20
73.5012671595
 30
0.0
 11
572.2210665259
 21
73.5012671595
 31
0.0
  0
LINE
  5
1AC
330
1F
100
AcDbEntity
  8
0
  6
Continuous
 62
     7
370
    25
100
AcDbLine
 10
512.7710665259
 20
118.5012671595
 30
0.0
 11
512.7710665259
 21
73.5012671595
 31
0.0
  0
LINE
  5
1AD
330
1F
100
AcDbEntity
  8
0
  6
Continuous
 62
     7
370
    25
100
AcDbLine
 10
512.7710665259
 20
118.5012671595
 30
0.0
 11
554.9210665259
 21
118.5012671595
 31
0.0
  0
LINE
  5
1AE
330
1F
100
AcDbEntity
  8
0
  6
Continuous
 62
     7
370
    25
100
AcDbLine
 10
512.7710665259
 20
73.5012671595
 30
0.0
 11
554.9210665259
 21
73.5012671595
 31
0.0
  0
LINE
  5
1AF
330
1F
100
AcDbEntity
  8
0
  6
Continuous
 62
     7
370
    25
100
AcDbLine
 10
562.4210665259
 20
89.1012671595
 30
0.0
 11
571.7210665259
 21
89.1012671595
 31
0.0
  0
LINE
  5
1B0
330
1F
100
AcDbEntity
  8
0
  6
Continuous
 62
     7
370
    25
100
AcDbLine
 10
571.7210665259
 20
89.1012671595
 30
0.0
 11
571.7210665259
 21
81.0012671595
 31
0.0
  0
LINE
  5
1B1
330
1F
100
AcDbEntity
  8
0
  6
Continuous
 62
     7
370
    25
100
AcDbLine
 10
562.4210665259
 20
102.9012671595
 30
0.0
 11
571.7210665259
 21
102.9012671595
 31
0.0
  0
LINE
  5
1B2
330
1F
100
AcDbEntity
  8
0
  6
Continuous
 62
     7
370
    25
100
AcDbLine
 10
571.7210665259
 20
102.9012671595
 30
0.0
 11
571.7210665259
 21
111.0012671595
 31
0.0
  0
LINE
  5
1B3
330
1F
100
AcDbEntity
  8
0
  6
Continuous
 62
     7
370
    25
100
AcDbLine
 10
572.5210665259
 20
89.1012671595
 30
0.0
 11
571.7210665259
 21
89.1012671595
 31
0.0
  0
LINE
  5
1B4
330
1F
100
AcDbEntity
  8
0
  6
Continuous
 62
     7
370
    25
100
AcDbLine
 10
572.5210665259
 20
89.1012671595
 30
0.0
 11
572.5210665259
 21
87.1012671595
 31
0.0
  0
LINE
  5
1B5
330
1F
100
AcDbEntity
  8
0
  6
Continuous
 62
     7
370
    25
100
AcDbLine
 10
572.5210665259
 20
87.1012671595
 30
0.0
 11
574.7710665259
 21
87.1012671595
 31
0.0
  0
LINE
  5
1B6
330
1F
100
AcDbEntity
  8
0
  6
Continuous
 62
     7
370
    25
100
AcDbLine
 10
574.7710665259
 20
87.1012671595
 30
0.0
 11
574.7710665259
 21
85.1012671595
 31
0.0
  0
LINE
  5
1B7
330
1F
100
AcDbEntity
  8
0
  6
Continuous
 62
     7
370
    25
100
AcDbLine
 10
574.7710665259
 20
85.1012671595
 30
0.0
 11
571.7210665259
 21
85.1012671595
 31
0.0
  0
LINE
  5
1B8
330
1F
100
AcDbEntity
  8
0
  6
Continuous
 62
     7
370
    25
100
AcDbLine
 10
571.7210665259
 20
106.9012671595
 30
0.0
 11
574.7710665259
 21
106.9012671595
 31
0.0
  0
LINE
  5
1B9
330
1F
100
AcDbEntity
  8
0
  6
Continuous
 62
     7
370
    25
100
AcDbLine
 10
574.7710665259
 20
106.9012671595
 30
0.0
 11
574.7710665259
 21
104.9012671595
 31
0.0
  0
LINE
  5
1BA
330
1F
100
AcDbEntity
  8
0
  6
Continuous
 62
     7
370
    25
100
AcDbLine
 10
572.5210665259
 20
104.9012671595
 30
0.0
 11
574.7710665259
 21
104.9012671595
 31
0.0
  0
LINE
  5
1BB
330
1F
100
AcDbEntity
  8
0
  6
Continuous
 62
     7
370
    25
100
AcDbLine
 10
572.5210665259
 20
104.9012671595
 30
0.0
 11
572.5210665259
 21
102.9012671595
 31
0.0
  0
LINE
  5
1BC
330
1F
100
AcDbEntity
  8
0
  6
Continuous
 62
     7
370
    25
100
AcDbLine
 10
571.7210665259
 20
102.9012671595
 30
0.0
 11
572.5210665259
 21
102.9012671595
 31
0.0
  0
LINE
  5
1BD
330
1F
100
AcDbEntity
  8
0
  6
Continuous
 62
     7
370
    25
100
AcDbLine
 10
574.7710665259
 20
107.150806198
 30
0.0
 11
574.7710665259
 21
106.9012671595
 31
0.0
  0
LINE
  5
1BE
330
1F
100
AcDbEntity
  8
0
  6
Continuous
 62
     7
370
    25
100
AcDbLine
 10
571.7210665259
 20
107.150806198
 30
0.0
 11
574.7710665259
 21
107.150806198
 31
0.0
  0
LINE
  5
1BF
330
1F
100
AcDbEntity
  8
0
  6
Continuous
 62
     7
370
    25
100
AcDbLine
 10
574.7710665259
 20
85.1012671595
 30
0.0
 11
574.7710665259
 21
84.8517281209
 31
0.0
  0
LINE
  5
1C0
330
1F
100
AcDbEntity
  8
0
  6
Continuous
 62
     7
370
    25
100
AcDbLine
 10
574.7710665259
 20
84.8517281209
 30
0.0
 11
571.7210665259
 21
84.8517281209
 31
0.0
  0
LINE
  5
1C1
330
1F
100
AcDbEntity
  8
0
  6
Continuous
 62
     7
370
    25
100
AcDbLine
 10
574.7710665259
 20
110.4012671595
 30
0.0
 11
571.7210665259
 21
110.4012671595
 31
0.0
  0
LINE
  5
1C2
330
1F
100
AcDbEntity
  8
0
  6
Continuous
 62
     7
370
    25
100
AcDbLine
 10
571.7210665259
 20
81.6012671595
 30
0.0
 11
574.7710665259
 21
81.6012671595
 31
0.0
  0
LINE
  5
1C3
330
1F
100
AcDbEntity
  8
0
  6
Continuous
 62
     7
370
    25
100
AcDbLine
 10
574.7710665259
 20
81.6012671595
 30
0.0
 11
574.7710665259
 21
84.8517281209
 31
0.0
  0
LINE
  5
1C4
330
1F
100
AcDbEntity
  8
0
  6
Continuous
 62
     7
370
    25
100
AcDbLine
 10
574.7710665259
 20
107.150806198
 30
0.0
 11
574.7710665259
 21
110.4012671595
 31
0.0
  0
LINE
  5
1C5
330
1F
100
AcDbEntity
  8
0
  6
Continuous
 62
     7
370
    25
100
AcDbLine
 10
424.3976668964
 20
261.0632575172
 30
0.0
 11
424.3976668964
 21
261.0224304766
 31
0.0
  0
LINE
  5
1C6
330
1F
100
AcDbEntity
  8
0
  6
Continuous
 62
     7
370
    25
100
AcDbLine
 10
424.8976668964
 20
261.0224304766
 30
0.0
 11
424.8976668964
 21
261.0632575172
 31
0.0
  0
LINE
  5
1C7
330
1F
100
AcDbEntity
  8
0
  6
Continuous
 62
     7
370
    25
100
AcDbLine
 10
424.4801339486
 20
260.9153086611
 30
0.0
 11
424.5022295674
 21
260.8838654045
 31
0.0
  0
LINE
  5
1C8
330
1F
100
AcDbEntity
  8
0
  6
Continuous
 62
     7
370
    25
100
AcDbLine
 10
424.7931042255
 20
260.8838654045
 30
0.0
 11
424.8151998442
 21
260.9153086611
 31
0.0
  0
SPLINE
  5
1C9
330
1F
100
AcDbEntity
  8
0
  6
Continuous
 62
     7
370
    25
100
AcDbSpline
210
0.0
220
0.0
230
1.0
 70
     8
 71
     3
 72
     9
 73
     5
 74
     0
 42
0.000000001
 43
0.00000001
 40
0.0
 40
0.0
 40
0.0
 40
0.0
 40
0.6804132563288726
 40
1.0
 40
1.0
 40
1.0
 40
1.0
 10
424.7933115322776
 20
260.8793478907976
 30
0.0
 10
424.7935333221495
 20
260.8816950788543
 30
0.0
 10
424.7938592856282
 20
260.8851447295407
 30
0.0
 10
424.7933331983295
 20
260.884153525245
 30
0.0
 10
424.7931650678029
 20
260.8838367494918
 30
0.0
  0
SPLINE
  5
1CA
330
1F
100
AcDbEntity
  8
0
  6
Continuous
 62
     7
370
    25
100
AcDbSpline
210
0.0
220
0.0
230
1.0
 70
     8
 71
     3
 72
     9
 73
     5
 74
     0
 42
0.000000001
 43
0.00000001
 40
0.0
 40
0.0
 40
0.0
 40
0.0
 40
0.6287928398334723
 40
1.0
 40
1.0
 40
1.0
 40
1.0
 10
424.501634987648
 20
260.8846762655364
 30
0.0
 10
424.5019499293883
 20
260.8837687756385
 30
0.0
 10
424.5024507966381
 20
260.8823255500795
 30
0.0
 10
424.5021902587503
 20
260.8806710845475
 30
0.0
 10
424.5020935452207
 20
260.8800569350959
 30
0.0
  0
LINE
  5
1CB
330
1F
100
AcDbEntity
  8
0
  6
Continuous
 62
     7
370
    25
100
AcDbLine
 10
424.5024233112
 20
260.8795907058
 30
0.0
 11
424.5024233112
 21
260.5442767856
 31
0.0
  0
LINE
  5
1CC
330
1F
100
AcDbEntity
  8
0
  6
Continuous
 62
     7
370
    25
100
AcDbLine
 10
424.7929104817
 20
260.5528838124
 30
0.0
 11
424.7929104817
 21
260.8795907058
 31
0.0
  0
LINE
  5
1CD
330
1F
100
AcDbEntity
  8
0
  6
Continuous
 62
     7
370
    25
100
AcDbLine
 10
442.0753364261
 20
250.8581561194
 30
0.0
 11
442.0753364261
 21
250.8173290788
 31
0.0
  0
LINE
  5
1CE
330
1F
100
AcDbEntity
  8
0
  6
Continuous
 62
     7
370
    25
100
AcDbLine
 10
442.5753364261
 20
250.8173290788
 30
0.0
 11
442.5753364261
 21
250.8581561194
 31
0.0
  0
LINE
  5
1CF
330
1F
100
AcDbEntity
  8
0
  6
Continuous
 62
     7
370
    25
100
AcDbLine
 10
442.1578034783
 20
250.7102072633
 30
0.0
 11
442.1798990971
 21
250.6787640067
 31
0.0
  0
LINE
  5
1D0
330
1F
100
AcDbEntity
  8
0
  6
Continuous
 62
     7
370
    25
100
AcDbLine
 10
442.4707737551
 20
250.6787640067
 30
0.0
 11
442.4928693739
 21
250.7102072633
 31
0.0
  0
SPLINE
  5
1D1
330
1F
100
AcDbEntity
  8
0
  6
Continuous
 62
     7
370
    25
100
AcDbSpline
210
0.0
220
0.0
230
1.0
 70
     8
 71
     3
 72
     9
 73
     5
 74
     0
 42
0.000000001
 43
0.00000001
 40
0.0
 40
0.0
 40
0.0
 40
0.0
 40
0.6804132563288726
 40
1.0
 40
1.0
 40
1.0
 40
1.0
 10
442.4709810619412
 20
250.6742464930137
 30
0.0
 10
442.4712028518132
 20
250.6765936810704
 30
0.0
 10
442.4715288152919
 20
250.6800433317568
 30
0.0
 10
442.4710027279932
 20
250.6790521274611
 30
0.0
 10
442.4708345974665
 20
250.6787353517079
 30
0.0
  0
SPLINE
  5
1D2
330
1F
100
AcDbEntity
  8
0
  6
Continuous
 62
     7
370
    25
100
AcDbSpline
210
0.0
220
0.0
230
1.0
 70
     8
 71
     3
 72
     9
 73
     5
 74
     0
 42
0.000000001
 43
0.00000001
 40
0.0
 40
0.0
 40
0.0
 40
0.0
 40
0.6287928398334786
 40
0.9999999999999999
 40
0.9999999999999999
 40
0.9999999999999999
 40
0.9999999999999999
 10
442.1793045173117
 20
250.6795748677525
 30
0.0
 10
442.179619459052
 20
250.6786673778547
 30
0.0
 10
442.1801203263018
 20
250.6772241522957
 30
0.0
 10
442.1798597884139
 20
250.6755696867637
 30
0.0
 10
442.1797630748844
 20
250.6749555373119
 30
0.0
  0
LINE
  5
1D3
330
1F
100
AcDbEntity
  8
0
  6
Continuous
 62
     7
370
    25
100
AcDbLine
 10
442.1800928408
 20
250.6744893081
 30
0.0
 11
442.1800928408
 21
250.3435506362
 31
0.0
  0
LINE
  5
1D4
330
1F
100
AcDbEntity
  8
0
  6
Continuous
 62
     7
370
    25
100
AcDbLine
 10
442.4705800113
 20
250.3477824147
 30
0.0
 11
442.4705800113
 21
250.6744893081
 31
0.0
  0
LINE
  5
1D5
330
1F
100
AcDbEntity
  8
0
  6
Continuous
 62
     7
370
    25
100
AcDbLine
 10
453.5153012384
 20
266.4037700648
 30
0.0
 11
505.3815836384
 21
236.4620025637
 31
0.0
  0
LINE
  5
1D6
330
1F
100
AcDbEntity
  8
0
  6
Continuous
 62
     7
370
    25
100
AcDbLine
 10
501.4924963419
 20
234.2168802562
 30
0.0
 11
505.3815836384
 21
236.4620025637
 31
0.0
  0
LINE
  5
1D7
330
1F
100
AcDbEntity
  8
0
  6
Continuous
 62
     7
370
    25
100
AcDbLine
 10
501.4924963419
 20
234.2168802562
 30
0.0
 11
449.6262139418
 21
264.1586477573
 31
0.0
  0
LINE
  5
1D8
330
1F
100
AcDbEntity
  8
0
  6
Continuous
 62
     7
370
    25
100
AcDbLine
 10
453.5153012384
 20
266.4037700648
 30
0.0
 11
449.6262139418
 21
264.1586477573
 31
0.0
  0
LINE
  5
1D9
330
1F
100
AcDbEntity
  8
0
  6
Continuous
 62
     7
370
    25
100
AcDbLine
 10
501.4924963419
 20
220.0907242105
 30
0.0
 11
501.4924963419
 21
234.2168802562
 31
0.0
  0
LINE
  5
1DA
330
1F
100
AcDbEntity
  8
0
  6
Continuous
 62
     7
370
    25
100
AcDbLine
 10
495.9770634486
 20
223.2747158467
 30
0.0
 11
501.4924963419
 21
220.0907242105
 31
0.0
  0
LINE
  5
1DB
330
1F
100
AcDbEntity
  8
0
  6
Continuous
 62
     7
370
    25
100
AcDbLine
 10
457.5104545521
 20
211.0638212672
 30
0.0
 11
495.9770634486
 21
223.2747158467
 31
0.0
  0
LINE
  5
1DC
330
1F
100
AcDbEntity
  8
0
  6
Continuous
 62
     7
370
    25
100
AcDbLine
 10
449.6262139418
 20
215.6152964907
 30
0.0
 11
457.5104545521
 21
211.0638212672
 31
0.0
  0
LINE
  5
1DD
330
1F
100
AcDbEntity
  8
0
  6
Continuous
 62
     7
370
    25
100
AcDbLine
 10
449.6262139418
 20
215.6152964907
 30
0.0
 11
449.6262139418
 21
264.1586477573
 31
0.0
  0
LWPOLYLINE
  5
1DE
330
1F
100
AcDbEntity
  8
0
  6
Continuous
 62
     7
370
    25
100
AcDbPolyline
 90
       61
 70
   128
 43
0.0
 10
456.0082227179
 20
220.7700955345
 10
456.0019281099
 20
220.9124259382
 10
455.9831132509
 20
221.0604645401
 10
455.9519842805
 20
221.212589398
 10
455.9088822541
 20
221.3671338003
 10
455.8542794065
 20
221.5224045262
 10
455.7887739781
 20
221.676700397
 10
455.71308366
 20
221.8283309149
 10
455.6280377311
 20
221.9756347843
 10
455.5345679724
 20
222.1169981131
 10
455.4336984582
 20
222.2508720952
 10
455.326534336
 20
222.375789979
 10
455.2142497184
 20
222.4903831383
 10
455.098074819
 20
222.5933960663
 10
454.9792824745
 20
222.6837001318
 10
454.8591741985
 20
222.7603059446
 10
454.7390659226
 20
222.8223741955
 10
454.620273578
 20
222.8692248515
 10
454.5040986787
 20
222.9003446072
 10
454.391814061
 20
222.9153925081
 10
454.2846499388
 20
222.914203686
 10
454.1837804246
 20
222.8967911661
 10
454.090310666
 20
222.8633457235
 10
454.0052647371
 20
222.8142337936
 10
453.9295744189
 20
222.7499934568
 10
453.8640689905
 20
222.6713285438
 10
453.809466143
 20
222.5791009238
 10
453.7663641166
 20
222.4743210619
 10
453.7352351461
 20
222.3581369482
 10
453.7164202871
 20
222.2318215202
 10
453.7101256791
 20
222.0967587162
 10
453.7164202871
 20
221.9544283124
 10
453.7352351461
 20
221.8063897106
 10
453.7663641166
 20
221.6542648526
 10
453.809466143
 20
221.4997204503
 10
453.8640689905
 20
221.3444497245
 10
453.9295744189
 20
221.1901538537
 10
454.0052647371
 20
221.0385233357
 10
454.090310666
 20
220.8912194663
 10
454.1837804246
 20
220.7498561375
 10
454.2846499388
 20
220.6159821555
 10
454.391814061
 20
220.4910642716
 10
454.5040986787
 20
220.3764711124
 10
454.620273578
 20
220.2734581844
 10
454.7390659226
 20
220.1831541188
 10
454.8591741985
 20
220.106548306
 10
454.9792824745
 20
220.0444800552
 10
455.098074819
 20
219.9976293991
 10
455.2142497184
 20
219.9665096434
 10
455.326534336
 20
219.9514617426
 10
455.4336984582
 20
219.9526505646
 10
455.5345679724
 20
219.9700630845
 10
455.6280377311
 20
220.0035085271
 10
455.71308366
 20
220.0526204571
 10
455.7887739781
 20
220.1168607938
 10
455.8542794065
 20
220.1955257068
 10
455.9088822541
 20
220.2877533268
 10
455.9519842805
 20
220.3925331887
 10
455.9831132509
 20
220.5087173024
 10
456.0019281099
 20
220.6350327304
 10
456.0082227179
 20
220.7700955345
  0
LWPOLYLINE
  5
1DF
330
1F
100
AcDbEntity
  8
0
  6
Continuous
 62
     7
370
    25
100
AcDbPolyline
 90
       68
 70
   128
 43
0.0
 10
461.1874098142
 20
235.8461799281
 10
461.1811957344
 20
236.0026914358
 10
461.1626081045
 20
236.1650021386
 10
461.1318102733
 20
236.3316856442
 10
461.0890728932
 20
236.5012771319
 10
461.0347715419
 20
236.6722862257
 10
460.9693834216
 20
236.8432100915
 10
460.8934831654
 20
237.0125466442
 10
460.8077377875
 20
237.1788077481
 10
460.7129008214
 20
237.3405322947
 10
460.6098056978
 20
237.4962990427
 10
460.4993584203
 20
237.6447391085
 10
460.3825296035
 20
237.7845479954
 10
460.2603459433
 20
237.9144970579
 10
460.1338811942
 20
238.0334442989
 10
460.0042467327
 20
238.1403444058
 10
459.8725817914
 20
238.2342579366
 10
459.7400434463
 20
238.3143595758
 10
459.6077964494
 20
238.3799453875
 10
459.4770029918
 20
238.4304390009
 10
459.3488124912
 20
238.4653966766
 10
459.2243514904
 20
238.4845112052
 10
459.1047137571
 20
238.4876146075
 10
458.9909506719
 20
238.4746796106
 10
458.8840619891
 20
238.4458198879
 10
458.7849870501
 20
238.4012890596
 10
458.6945965292
 20
238.3414784643
 10
458.6136847813
 20
238.2669137195
 10
458.542962862
 20
238.1782501029
 10
458.483052278
 20
238.0762667937
 10
458.4344795255
 20
237.9618600247
 10
458.3976714638
 20
237.8360352068
 10
458.3729515634
 20
237.699898093
 10
458.3605370637
 20
237.5546450612
 10
458.3605370637
 20
237.4015526002
 10
458.3729515634
 20
237.241966092
 10
458.3976714638
 20
237.0772879888
 10
458.4344795255
 20
236.9089654874
 10
458.483052278
 20
236.7384778122
 10
458.542962862
 20
236.5673232149
 10
458.6136847813
 20
236.3970058084
 10
458.6945965292
 20
236.229022348
 10
458.7849870501
 20
236.0648490786
 10
458.8840619891
 20
235.9059287606
 10
458.9909506719
 20
235.7536579916
 10
459.1047137571
 20
235.6093749325
 10
459.2243514904
 20
235.4743475481
 10
459.3488124912
 20
235.3497624638
 10
459.4770029918
 20
235.2367145379
 10
459.6077964494
 20
235.1361972396
 10
459.7400434463
 20
235.0490939186
 10
459.8725817914
 20
234.9761700419
 10
460.0042467327
 20
234.9180664672
 10
460.1338811942
 20
234.8752938108
 10
460.2603459433
 20
234.8482279604
 10
460.3825296035
 20
234.8371067716
 10
460.4993584203
 20
234.8420279778
 10
460.6098056978
 20
234.8629483313
 10
460.7129008214
 20
234.8996839833
 10
460.8077377875
 20
234.9519120995
 10
460.8934831654
 20
235.0191736974
 10
460.9693834216
 20
235.1008776796
 10
461.0347715419
 20
235.1963060286
 10
461.0890728932
 20
235.3046201166
 10
461.1318102733
 20
235.4248680756
 10
461.1626081045
 20
235.5559931622
 10
461.1811957344
 20
235.6968430443
 10
461.1874098142
 20
235.8461799281
  0
LWPOLYLINE
  5
1E0
330
1F
100
AcDbEntity
  8
0
  6
Continuous
 62
     7
370
    25
100
AcDbPolyline
 90
       68
 70
   128
 43
0.0
 10
482.0470598593
 20
223.8041602788
 10
482.0408457794
 20
223.9606717865
 10
482.0222581495
 20
224.1229824892
 10
481.9914603183
 20
224.2896659948
 10
481.9487229382
 20
224.4592574826
 10
481.8944215869
 20
224.6302665763
 10
481.8290334666
 20
224.8011904421
 10
481.7531332104
 20
224.9705269948
 10
481.6673878325
 20
225.1367880987
 10
481.5725508664
 20
225.2985126453
 10
481.4694557428
 20
225.4542793933
 10
481.3590084653
 20
225.6027194591
 10
481.2421796485
 20
225.742528346
 10
481.1199959883
 20
225.8724774085
 10
480.9935312392
 20
225.9914246495
 10
480.8638967777
 20
226.0983247564
 10
480.7322318364
 20
226.1922382872
 10
480.5996934914
 20
226.2723399265
 10
480.4674464944
 20
226.3379257381
 10
480.3366530368
 20
226.3884193516
 10
480.2084625362
 20
226.4233770272
 10
480.0840015354
 20
226.4424915558
 10
479.9643638021
 20
226.4455949581
 10
479.8506007169
 20
226.4326599613
 10
479.7437120341
 20
226.4038002386
 10
479.6446370951
 20
226.3592694103
 10
479.5542465742
 20
226.2994588149
 10
479.4733348264
 20
226.2248940701
 10
479.402612907
 20
226.1362304535
 10
479.342702323
 20
226.0342471443
 10
479.2941295705
 20
225.9198403753
 10
479.2573215088
 20
225.7940155574
 10
479.2326016084
 20
225.6578784436
 10
479.2201871087
 20
225.5126254118
 10
479.2201871087
 20
225.3595329508
 10
479.2326016084
 20
225.1999464427
 10
479.2573215088
 20
225.0352683394
 10
479.2941295705
 20
224.866945838
 10
479.342702323
 20
224.6964581628
 10
479.402612907
 20
224.5253035655
 10
479.4733348264
 20
224.354986159
 10
479.5542465742
 20
224.1870026986
 10
479.6446370951
 20
224.0228294292
 10
479.7437120341
 20
223.8639091112
 10
479.8506007169
 20
223.7116383422
 10
479.9643638021
 20
223.5673552831
 10
480.0840015354
 20
223.4323278987
 10
480.2084625362
 20
223.3077428144
 10
480.3366530368
 20
223.1946948885
 10
480.4674464944
 20
223.0941775903
 10
480.5996934914
 20
223.0070742692
 10
480.7322318364
 20
222.9341503925
 10
480.8638967777
 20
222.8760468178
 10
480.9935312392
 20
222.8332741615
 10
481.1199959883
 20
222.806208311
 10
481.2421796485
 20
222.7950871222
 10
481.3590084653
 20
222.8000083284
 10
481.4694557428
 20
222.8209286819
 10
481.5725508664
 20
222.8576643339
 10
481.6673878325
 20
222.9098924501
 10
481.7531332104
 20
222.977154048
 10
481.8290334666
 20
223.0588580302
 10
481.8944215869
 20
223.1542863792
 10
481.9487229382
 20
223.2626004673
 10
481.9914603183
 20
223.3828484262
 10
482.0222581495
 20
223.5139735128
 10
482.0408457794
 20
223.6548233949
 10
482.0470598593
 20
223.8041602788
  0
LINE
  5
1E1
330
1F
100
AcDbEntity
  8
0
  6
Continuous
 62
     7
370
    25
100
AcDbLine
 10
533.3123014953
 20
238.4599067266
 30
0.0
 11
533.3123014953
 21
252.5860627722
 31
0.0
  0
LINE
  5
1E2
330
1F
100
AcDbEntity
  8
0
  6
Continuous
 62
     7
370
    25
100
AcDbLine
 10
501.4924963419
 20
220.0907242105
 30
0.0
 11
533.3123014953
 21
238.4599067266
 31
0.0
  0
LINE
  5
1E3
330
1F
100
AcDbEntity
  8
0
  6
Continuous
 62
     7
370
    25
100
AcDbLine
 10
505.3815836384
 20
236.0537321577
 30
0.0
 11
505.3815836384
 21
236.4620025637
 31
0.0
  0
LINE
  5
1E4
330
1F
100
AcDbEntity
  8
0
  6
Continuous
 62
     7
370
    25
100
AcDbLine
 10
505.3815836384
 20
236.0537321577
 30
0.0
 11
506.7957972008
 21
236.8701402696
 31
0.0
  0
LINE
  5
1E5
330
1F
100
AcDbEntity
  8
0
  6
Continuous
 62
     7
370
    25
100
AcDbLine
 10
506.7957972008
 20
229.276310719
 30
0.0
 11
506.7957972008
 21
236.8701402696
 31
0.0
  0
LINE
  5
1E6
330
1F
100
AcDbEntity
  8
0
  6
Continuous
 62
     7
370
    25
100
AcDbLine
 10
528.0090006364
 20
241.5224323964
 30
0.0
 11
506.7957972008
 21
229.276310719
 31
0.0
  0
LINE
  5
1E7
330
1F
100
AcDbEntity
  8
0
  6
Continuous
 62
     7
370
    25
100
AcDbLine
 10
528.0090006364
 20
241.5224323964
 30
0.0
 11
528.0090006364
 21
249.1162619469
 31
0.0
  0
LINE
  5
1E8
330
1F
100
AcDbEntity
  8
0
  6
Continuous
 62
     7
370
    25
100
AcDbLine
 10
528.0090006364
 20
249.1162619469
 30
0.0
 11
529.4232141988
 21
249.9326700587
 31
0.0
  0
LINE
  5
1E9
330
1F
100
AcDbEntity
  8
0
  6
Continuous
 62
     7
370
    25
100
AcDbLine
 10
529.4232141988
 20
249.9326700587
 30
0.0
 11
529.4232141988
 21
250.3409404647
 31
0.0
  0
LINE
  5
1EA
330
1F
100
AcDbEntity
  8
0
  6
Continuous
 62
     7
370
    25
100
AcDbLine
 10
529.4232141988
 20
250.3409404647
 30
0.0
 11
533.3123014953
 21
252.5860627722
 31
0.0
  0
LINE
  5
1EB
330
1F
100
AcDbEntity
  8
0
  6
Continuous
 62
     7
370
    25
100
AcDbLine
 10
463.0258874453
 20
268.7508770362
 30
0.0
 11
459.4903535394
 21
270.7918973158
 31
0.0
  0
LINE
  5
1EC
330
1F
100
AcDbEntity
  8
0
  6
Continuous
 62
     7
370
    25
100
AcDbLine
 10
463.0258874453
 20
268.7508770362
 30
0.0
 11
457.2983225177
 21
265.4444241834
 31
0.0
  0
LINE
  5
1ED
330
1F
100
AcDbEntity
  8
0
  6
Continuous
 62
     7
370
    25
100
AcDbLine
 10
457.2983225177
 20
265.4444241834
 30
0.0
 11
506.7957972008
 21
236.8701402696
 31
0.0
  0
LINE
  5
1EE
330
1F
100
AcDbEntity
  8
0
  6
Continuous
 62
     7
370
    25
100
AcDbLine
 10
453.868912096
 20
266.1996348618
 30
0.0
 11
457.6459481582
 21
268.3800713686
 31
0.0
  0
LINE
  5
1EF
330
1F
100
AcDbEntity
  8
0
  6
Continuous
 62
     7
370
    25
100
AcDbLine
 10
457.475099213
 20
268.5153254831
 30
0.0
 11
457.6459481582
 21
268.3800713686
 31
0.0
  0
LINE
  5
1F0
330
1F
100
AcDbEntity
  8
0
  6
Continuous
 62
     7
370
    25
100
AcDbLine
 10
459.4903535394
 20
270.7918973158
 30
0.0
 11
457.475099213
 21
269.6285157564
 31
0.0
  0
LINE
  5
1F1
330
1F
100
AcDbEntity
  8
0
  6
Continuous
 62
     7
370
    25
100
AcDbLine
 10
527.9359528535
 20
241.5646019838
 30
0.0
 11
528.0090006364
 21
241.5224323964
 31
0.0
  0
LWPOLYLINE
  5
1F2
330
1F
100
AcDbEntity
  8
0
  6
Continuous
 62
     7
370
    25
100
AcDbPolyline
 90
       28
 70
   128
 43
0.0
 10
514.9432713833
 20
243.9328007921
 10
515.3565052313
 20
244.0547429578
 10
515.7772369951
 20
244.1606000376
 10
516.2052158997
 20
244.250308936
 10
516.6401868504
 20
244.3238161823
 10
517.081890585
 20
244.381077963
 10
517.5300638283
 20
244.4220601475
 10
517.9844394489
 20
244.4467383086
 10
518.4447466184
 20
244.4550977369
 10
518.9107109732
 20
244.4471334499
 10
519.3820547775
 20
244.4228501947
 10
519.8584970893
 20
244.3822624451
 10
520.3397539276
 20
244.3253943933
 10
520.8255384416
 20
244.2522799351
 10
521.315561082
 20
244.1629626502
 10
521.8095297732
 20
244.0574957756
 10
522.3071500878
 20
243.9359421742
 10
522.8081254217
 20
243.7983742976
 10
523.312157171
 20
243.6448741423
 10
523.8189449103
 20
243.4755332014
 10
524.3281865712
 20
243.2904524095
 10
524.8395786229
 20
243.0897420833
 10
525.3528162527
 20
242.8735218551
 10
525.867593548
 20
242.6419206017
 10
526.3836036783
 20
242.3950763681
 10
526.9005390784
 20
242.1331362844
 10
527.4180916317
 20
241.8562564787
 10
527.9359528535
 20
241.5646019838
  0
LINE
  5
1F3
330
1F
100
AcDbEntity
  8
0
  6
Continuous
 62
     7
370
    25
100
AcDbLine
 10
529.4232141988
 20
249.9326700587
 30
0.0
 11
477.5569317987
 21
279.8744375598
 31
0.0
  0
LINE
  5
1F4
330
1F
100
AcDbEntity
  8
0
  6
Continuous
 62
     7
370
    25
100
AcDbLine
 10
478.5115259533
 20
277.6905458607
 30
0.0
 11
528.0090006364
 21
249.1162619469
 31
0.0
  0
LINE
  5
1F5
330
1F
100
AcDbEntity
  8
0
  6
Continuous
 62
     7
370
    25
100
AcDbLine
 10
472.7839610257
 20
274.3840930078
 30
0.0
 11
478.5115259533
 21
277.6905458607
 31
0.0
  0
LINE
  5
1F6
330
1F
100
AcDbEntity
  8
0
  6
Continuous
 62
     7
370
    25
100
AcDbLine
 10
472.7839610257
 20
274.3840930078
 30
0.0
 11
469.2484271198
 21
276.4251132874
 31
0.0
  0
LINE
  5
1F7
330
1F
100
AcDbEntity
  8
0
  6
Continuous
 62
     7
370
    25
100
AcDbLine
 10
472.0768542445
 20
278.057929511
 30
0.0
 11
469.2484271198
 21
276.4251132874
 31
0.0
  0
LINE
  5
1F8
330
1F
100
AcDbEntity
  8
0
  6
Continuous
 62
     7
370
    25
100
AcDbLine
 10
473.4262848789
 20
277.4898658501
 30
0.0
 11
472.0768542445
 21
278.057929511
 31
0.0
  0
LINE
  5
1F9
330
1F
100
AcDbEntity
  8
0
  6
Continuous
 62
     7
370
    25
100
AcDbLine
 10
473.4262848789
 20
277.4898658501
 30
0.0
 11
477.5569317987
 21
279.8744375598
 31
0.0
  0
LINE
  5
1FA
330
1F
100
AcDbEntity
  8
0
  6
Continuous
 62
     7
370
    25
100
AcDbLine
 10
478.5115259533
 20
255.6847709804
 30
0.0
 11
478.5115259533
 21
277.6905458607
 31
0.0
  0
LINE
  5
1FB
330
1F
100
AcDbEntity
  8
0
  6
Continuous
 62
     7
370
    25
100
AcDbLine
 10
501.7928139347
 20
239.7583010328
 30
0.0
 11
514.9432713833
 21
243.9328007921
 31
0.0
  0
LINE
  5
1FC
330
1F
100
AcDbEntity
  8
0
  6
Continuous
 62
     7
370
    25
100
AcDbLine
 10
533.3123014953
 20
252.5860627722
 30
0.0
 11
481.4460190952
 21
282.5278302733
 31
0.0
  0
LINE
  5
1FD
330
1F
100
AcDbEntity
  8
0
  6
Continuous
 62
     7
370
    25
100
AcDbLine
 10
529.4232141988
 20
250.3409404647
 30
0.0
 11
477.5569317987
 21
280.2827079658
 31
0.0
  0
LINE
  5
1FE
330
1F
100
AcDbEntity
  8
0
  6
Continuous
 62
     7
370
    25
100
AcDbLine
 10
477.5569317987
 20
280.2827079658
 30
0.0
 11
481.4460190952
 21
282.5278302733
 31
0.0
  0
LINE
  5
1FF
330
1F
100
AcDbEntity
  8
0
  6
Continuous
 62
     7
370
    25
100
AcDbLine
 10
477.5569317987
 20
279.8744375598
 30
0.0
 11
477.5569317987
 21
280.2827079658
 31
0.0
  0
SPLINE
  5
200
330
1F
100
AcDbEntity
  8
0
  6
Continuous
 62
     7
370
    25
100
AcDbSpline
210
0.0
220
0.0
230
1.0
 70
     8
 71
     3
 72
    21
 73
    17
 74
     0
 42
0.000000001
 43
0.00000001
 40
0.0
 40
0.0
 40
0.0
 40
0.0
 40
0.0762603710146499
 40
0.1551260228337865
 40
0.2256981640404504
 40
0.2983169024641426
 40
0.3688890401235135
 40
0.4415077757329647
 40
0.5120799042477964
 40
0.5846986300196249
 40
0.6552707554433914
 40
0.7278894772061172
 40
0.7984616066388373
 40
0.871080331921892
 40
0.9416524683567179
 40
1.0
 40
1.0
 40
1.0
 40
1.0
 10
479.2221997867574
 20
225.4390357179412
 30
0.0
 10
479.2266049100541
 20
225.3386649194333
 30
0.0
 10
479.2355656487447
 20
225.1344943577899
 30
0.0
 10
479.3059775187471
 20
224.8136891715564
 30
0.0
 10
479.4127013442044
 20
224.4946582474269
 30
0.0
 10
479.5508844111679
 20
224.1905480893761
 30
0.0
 10
479.7210111392299
 20
223.8960919062962
 30
0.0
 10
479.9154788231295
 20
223.6247611292161
 30
0.0
 10
480.1322887997245
 20
223.3794385953581
 30
0.0
 10
480.3614421342048
 20
223.1714963641011
 30
0.0
 10
480.6005320453041
 20
223.0030097195715
 30
0.0
 10
480.83836556389
 20
222.8818871131992
 30
0.0
 10
481.0728139240222
 20
222.8088929831434
 30
0.0
 10
481.2920113903047
 20
222.7893218088074
 30
0.0
 10
481.4840827216601
 20
222.8145480323952
 30
0.0
 10
481.5873832233931
 20
222.8696529615124
 30
0.0
 10
481.6341358204444
 20
222.8945928069471
 30
0.0
  0
SPLINE
  5
201
330
1F
100
AcDbEntity
  8
0
  6
Continuous
 62
     7
370
    25
100
AcDbSpline
210
0.0
220
0.0
230
1.0
 70
     8
 71
     3
 72
    12
 73
     8
 74
     0
 42
0.000000001
 43
0.00000001
 40
0.0
 40
0.0
 40
0.0
 40
0.0
 40
0.1205388098286842
 40
0.3383689295770129
 40
0.5500599517532657
 40
0.7678900325396334
 40
1.0
 40
1.0
 40
1.0
 40
1.0
 10
479.6399126767484
 20
226.3488768816355
 30
0.0
 10
479.6078966728345
 20
226.3314305579864
 30
0.0
 10
479.5180233698787
 20
226.2824563407481
 30
0.0
 10
479.4048411953704
 20
226.1497808142042
 30
0.0
 10
479.3027315237583
 20
225.9582052855314
 30
0.0
 10
479.2355093183288
 20
225.7229472464051
 30
0.0
 10
479.2267291832368
 20
225.5356542856647
 30
0.0
 10
479.2221997867574
 20
225.4390357179412
 30
0.0
  0
LINE
  5
202
330
1F
100
AcDbEntity
  8
0
  6
Continuous
 62
     7
370
    25
100
AcDbLine
 10
463.0258874453
 20
262.1379713305
 30
0.0
 11
463.0258874453
 21
268.7508770362
 31
0.0
  0
SPLINE
  5
203
330
1F
100
AcDbEntity
  8
0
  6
Continuous
 62
     7
370
    25
100
AcDbSpline
210
0.0
220
0.0
230
1.0
 70
     8
 71
     3
 72
    21
 73
    17
 74
     0
 42
0.000000001
 43
0.00000001
 40
0.0
 40
0.0
 40
0.0
 40
0.0
 40
0.0762603710148169
 40
0.1551260228341397
 40
0.2256981640408012
 40
0.2983169024644986
 40
0.3688890401238755
 40
0.4415077757333241
 40
0.5120799042481617
 40
0.5846986300199927
 40
0.6552707554437451
 40
0.7278894772064709
 40
0.7984616066391967
 40
0.8710803319222605
 40
0.9416524683570657
 40
1.0
 40
1.0
 40
1.0
 40
1.0
 10
458.3625497417542
 20
237.4810553673262
 30
0.0
 10
458.366954865051
 20
237.380684568818
 30
0.0
 10
458.3759156037416
 20
237.1765140071741
 30
0.0
 10
458.4463274737443
 20
236.8557088209401
 30
0.0
 10
458.5530512992019
 20
236.5366778968103
 30
0.0
 10
458.6912343661656
 20
236.2325677387595
 30
0.0
 10
458.8613610942278
 20
235.9381115556797
 30
0.0
 10
459.0558287781275
 20
235.6667807785997
 30
0.0
 10
459.2726387547225
 20
235.4214582447419
 30
0.0
 10
459.5017920892029
 20
235.2135160134851
 30
0.0
 10
459.7408820003022
 20
235.0450293689557
 30
0.0
 10
459.978715518888
 20
234.9239067625837
 30
0.0
 10
460.2131638790202
 20
234.8509126325281
 30
0.0
 10
460.4323613453027
 20
234.8313414581925
 30
0.0
 10
460.6244326766576
 20
234.8565676817803
 30
0.0
 10
460.7277331783903
 20
234.9116726108975
 30
0.0
 10
460.7744857754412
 20
234.9366124563322
 30
0.0
  0
SPLINE
  5
204
330
1F
100
AcDbEntity
  8
0
  6
Continuous
 62
     7
370
    25
100
AcDbSpline
210
0.0
220
0.0
230
1.0
 70
     8
 71
     3
 72
    12
 73
     8
 74
     0
 42
0.000000001
 43
0.00000001
 40
0.0
 40
0.0
 40
0.0
 40
0.0
 40
0.1205388098297956
 40
0.338368929578138
 40
0.550059951754353
 40
0.7678900325406868
 40
1.0
 40
1.0
 40
1.0
 40
1.0
 10
458.7802626317452
 20
238.3908965310205
 30
0.0
 10
458.7482466278311
 20
238.3734502073712
 30
0.0
 10
458.6583733248751
 20
238.3244759901326
 30
0.0
 10
458.5451911503667
 20
238.1918004635883
 30
0.0
 10
458.4430814787547
 20
238.0002249349153
 30
0.0
 10
458.3758592733257
 20
237.7649668957892
 30
0.0
 10
458.3670791382336
 20
237.5776739350492
 30
0.0
 10
458.3625497417542
 20
237.4810553673262
 30
0.0
  0
LINE
  5
205
330
1F
100
AcDbEntity
  8
0
  6
Continuous
 62
     7
370
    25
100
AcDbLine
 10
476.3579477441
 20
254.4415367432
 30
0.0
 11
478.5115259533
 21
255.6847709804
 31
0.0
  0
LINE
  5
206
330
1F
100
AcDbEntity
  8
0
  6
Continuous
 62
     7
370
    25
100
AcDbLine
 10
472.7839610257
 20
256.5047553589
 30
0.0
 11
472.7839610257
 21
274.3840930078
 31
0.0
  0
LINE
  5
207
330
1F
100
AcDbEntity
  8
0
  6
Continuous
 62
     7
370
    25
100
AcDbLine
 10
469.2484271198
 20
276.4251132874
 30
0.0
 11
469.2484271198
 21
258.5457756385
 31
0.0
  0
LINE
  5
208
330
1F
100
AcDbEntity
  8
0
  6
Continuous
 62
     7
370
    25
100
AcDbLine
 10
361.2378662935
 20
315.1841547462
 30
0.0
 11
414.2708748825
 21
284.5688505528
 31
0.0
  0
LINE
  5
209
330
1F
100
AcDbEntity
  8
0
  6
Continuous
 62
     7
370
    25
100
AcDbLine
 10
414.2708748825
 20
284.5688505528
 30
0.0
 11
414.2708748825
 21
236.0254992862
 31
0.0
  0
LINE
  5
20A
330
1F
100
AcDbEntity
  8
0
  6
Continuous
 62
     7
370
    25
100
AcDbLine
 10
414.2708748825
 20
236.0254992862
 30
0.0
 11
405.2199080833
 21
241.2505112019
 31
0.0
  0
LINE
  5
20B
330
1F
100
AcDbEntity
  8
0
  6
Continuous
 62
     7
370
    25
100
AcDbLine
 10
405.2199080833
 20
241.2505112019
 30
0.0
 11
366.7532991868
 21
297.8740070645
 31
0.0
  0
LINE
  5
20C
330
1F
100
AcDbEntity
  8
0
  6
Continuous
 62
     7
370
    25
100
AcDbLine
 10
366.7532991868
 20
297.8740070645
 30
0.0
 11
361.2378662935
 21
301.0579987006
 31
0.0
  0
LINE
  5
20D
330
1F
100
AcDbEntity
  8
0
  6
Continuous
 62
     7
370
    25
100
AcDbLine
 10
361.2378662935
 20
301.0579987006
 30
0.0
 11
361.2378662935
 21
315.1841547462
 31
0.0
  0
LWPOLYLINE
  5
20E
330
1F
100
AcDbEntity
  8
0
  6
Continuous
 62
     7
370
    25
100
AcDbPolyline
 90
       68
 70
   128
 43
0.0
 10
401.5429528212
 20
270.2781920443
 10
401.549166901
 20
270.4275289281
 10
401.5677545309
 20
270.5683788102
 10
401.5985523621
 20
270.6995038968
 10
401.6412897422
 20
270.8197518558
 10
401.6955910935
 20
270.9280659438
 10
401.7609792138
 20
271.0234942928
 10
401.83687947
 20
271.105198275
 10
401.9226248479
 20
271.1724598729
 10
402.017461814
 20
271.2246879891
 10
402.1205569376
 20
271.2614236411
 10
402.2310042151
 20
271.2823439946
 10
402.3478330319
 20
271.2872652008
 10
402.4700166921
 20
271.276144012
 10
402.5964814413
 20
271.2490781616
 10
402.7261159027
 20
271.2063055052
 10
402.857780844
 20
271.1482019305
 10
402.9903191891
 20
271.0752780538
 10
403.1225661861
 20
270.9881747328
 10
403.2533596436
 20
270.8876574345
 10
403.3815501442
 20
270.7746095086
 10
403.506011145
 20
270.6500244244
 10
403.6256488784
 20
270.5149970399
 10
403.7394119635
 20
270.3707139809
 10
403.8463006463
 20
270.2184432118
 10
403.9453755853
 20
270.0595228939
 10
404.0357661062
 20
269.8953496244
 10
404.1166778541
 20
269.727366164
 10
404.1873997734
 20
269.5570487575
 10
404.2473103575
 20
269.3858941602
 10
404.2958831099
 20
269.215406485
 10
404.3326911716
 20
269.0470839837
 10
404.357411072
 20
268.8824058804
 10
404.3698255717
 20
268.7228193722
 10
404.3698255717
 20
268.5697269112
 10
404.357411072
 20
268.4244738794
 10
404.3326911716
 20
268.2883367656
 10
404.2958831099
 20
268.1625119477
 10
404.2473103575
 20
268.0481051787
 10
404.1873997734
 20
267.9461218695
 10
404.1166778541
 20
267.8574582529
 10
404.0357661062
 20
267.7828935081
 10
403.9453755853
 20
267.7230829128
 10
403.8463006463
 20
267.6785520845
 10
403.7394119635
 20
267.6496923618
 10
403.6256488784
 20
267.6367573649
 10
403.506011145
 20
267.6398607672
 10
403.3815501442
 20
267.6589752958
 10
403.2533596436
 20
267.6939329715
 10
403.1225661861
 20
267.744426585
 10
402.9903191891
 20
267.8100123966
 10
402.857780844
 20
267.8901140358
 10
402.7261159027
 20
267.9840275667
 10
402.5964814413
 20
268.0909276736
 10
402.4700166921
 20
268.2098749145
 10
402.3478330319
 20
268.339823977
 10
402.2310042151
 20
268.4796328639
 10
402.1205569376
 20
268.6280729297
 10
402.017461814
 20
268.7838396777
 10
401.9226248479
 20
268.9455642243
 10
401.83687947
 20
269.1118253282
 10
401.7609792138
 20
269.2811618809
 10
401.6955910935
 20
269.4520857467
 10
401.6412897422
 20
269.6230948405
 10
401.5985523621
 20
269.7926863282
 10
401.5677545309
 20
269.9593698338
 10
401.549166901
 20
270.1216805366
 10
401.5429528212
 20
270.2781920443
  0
LWPOLYLINE
  5
20F
330
1F
100
AcDbEntity
  8
0
  6
Continuous
 62
     7
370
    25
100
AcDbPolyline
 90
       68
 70
   128
 43
0.0
 10
380.6833027762
 20
282.3202116937
 10
380.689516856
 20
282.4695485775
 10
380.7081044859
 20
282.6103984596
 10
380.7389023171
 20
282.7415235462
 10
380.7816396972
 20
282.8617715052
 10
380.8359410485
 20
282.9700855932
 10
380.9013291688
 20
283.0655139422
 10
380.977229425
 20
283.1472179244
 10
381.0629748029
 20
283.2144795223
 10
381.157811769
 20
283.2667076385
 10
381.2609068926
 20
283.3034432905
 10
381.3713541701
 20
283.324363644
 10
381.4881829869
 20
283.3292848502
 10
381.6103666471
 20
283.3181636614
 10
381.7368313962
 20
283.291097811
 10
381.8664658577
 20
283.2483251546
 10
381.998130799
 20
283.1902215799
 10
382.1306691441
 20
283.1172977032
 10
382.2629161411
 20
283.0301943822
 10
382.3937095986
 20
282.9296770839
 10
382.5219000992
 20
282.816629158
 10
382.6463611
 20
282.6920440737
 10
382.7659988333
 20
282.5570166893
 10
382.8797619185
 20
282.4127336302
 10
382.9866506013
 20
282.2604628612
 10
383.0857255403
 20
282.1015425432
 10
383.1761160612
 20
281.9373692738
 10
383.2570278091
 20
281.7693858134
 10
383.3277497284
 20
281.5990684069
 10
383.3876603125
 20
281.4279138096
 10
383.4362330649
 20
281.2574261344
 10
383.4730411266
 20
281.089103633
 10
383.497761027
 20
280.9244255298
 10
383.5101755267
 20
280.7648390216
 10
383.5101755267
 20
280.6117465606
 10
383.497761027
 20
280.4664935288
 10
383.4730411266
 20
280.330356415
 10
383.4362330649
 20
280.2045315971
 10
383.3876603125
 20
280.0901248281
 10
383.3277497284
 20
279.9881415189
 10
383.2570278091
 20
279.8994779023
 10
383.1761160612
 20
279.8249131575
 10
383.0857255403
 20
279.7651025622
 10
382.9866506013
 20
279.7205717339
 10
382.8797619185
 20
279.6917120112
 10
382.7659988333
 20
279.6787770143
 10
382.6463611
 20
279.6818804166
 10
382.5219000992
 20
279.7009949452
 10
382.3937095986
 20
279.7359526209
 10
382.2629161411
 20
279.7864462343
 10
382.1306691441
 20
279.852032046
 10
381.998130799
 20
279.9321336852
 10
381.8664658577
 20
280.026047216
 10
381.7368313962
 20
280.1329473229
 10
381.6103666471
 20
280.2518945639
 10
381.4881829869
 20
280.3818436264
 10
381.3713541701
 20
280.5216525133
 10
381.2609068926
 20
280.6700925791
 10
381.157811769
 20
280.8258593271
 10
381.0629748029
 20
280.9875838737
 10
380.977229425
 20
281.1538449776
 10
380.9013291688
 20
281.3231815303
 10
380.8359410485
 20
281.4941053961
 10
380.7816396972
 20
281.6651144899
 10
380.7389023171
 20
281.8347059776
 10
380.7081044859
 20
282.0013894832
 10
380.689516856
 20
282.163700186
 10
380.6833027762
 20
282.3202116937
  0
LINE
  5
210
330
1F
100
AcDbEntity
  8
0
  6
Continuous
 62
     7
370
    25
100
AcDbLine
 10
365.1269535901
 20
317.4292770537
 30
0.0
 11
361.2378662935
 21
315.1841547462
 31
0.0
  0
LINE
  5
211
330
1F
100
AcDbEntity
  8
0
  6
Continuous
 62
     7
370
    25
100
AcDbLine
 10
365.1269535901
 20
317.4292770537
 30
0.0
 11
418.159962179
 21
286.8139728603
 31
0.0
  0
LINE
  5
212
330
1F
100
AcDbEntity
  8
0
  6
Continuous
 62
     7
370
    25
100
AcDbLine
 10
418.159962179
 20
286.8139728603
 30
0.0
 11
414.2708748825
 21
284.5688505528
 31
0.0
  0
LINE
  5
213
330
1F
100
AcDbEntity
  8
0
  6
Continuous
 62
     7
370
    25
100
AcDbLine
 10
442.2015927394
 20
300.6524287409
 30
0.0
 11
442.2015927394
 21
300.6929107613
 31
0.0
  0
LINE
  5
214
330
1F
100
AcDbEntity
  8
0
  6
Continuous
 62
     7
370
    25
100
AcDbLine
 10
446.0906800359
 20
302.9380330688
 30
0.0
 11
442.2015927394
 21
300.6929107613
 31
0.0
  0
LINE
  5
215
330
1F
100
AcDbEntity
  8
0
  6
Continuous
 62
     7
370
    25
100
AcDbLine
 10
446.0906800359
 20
302.9380330688
 30
0.0
 11
446.0906800359
 21
298.4073064334
 31
0.0
  0
LINE
  5
216
330
1F
100
AcDbEntity
  8
0
  6
Continuous
 62
     7
370
    25
100
AcDbLine
 10
418.159962179
 20
286.4057024544
 30
0.0
 11
418.159962179
 21
286.8139728603
 31
0.0
  0
LINE
  5
217
330
1F
100
AcDbEntity
  8
0
  6
Continuous
 62
     7
370
    25
100
AcDbLine
 10
418.159962179
 20
286.4057024544
 30
0.0
 11
419.9984398101
 21
287.4670329998
 31
0.0
  0
LINE
  5
218
330
1F
100
AcDbEntity
  8
0
  6
Continuous
 62
     7
370
    25
100
AcDbLine
 10
366.5411671524
 20
317.8374147596
 30
0.0
 11
365.4805644477
 21
317.2251418507
 31
0.0
  0
LINE
  5
219
330
1F
100
AcDbEntity
  8
0
  6
Continuous
 62
     7
370
    25
100
AcDbLine
 10
416.0386418355
 20
289.2631308458
 30
0.0
 11
366.5411671524
 21
317.8374147596
 31
0.0
  0
LINE
  5
21A
330
1F
100
AcDbEntity
  8
0
  6
Continuous
 62
     7
370
    25
100
AcDbLine
 10
421.7662067631
 20
292.5695836987
 30
0.0
 11
416.0386418355
 21
289.2631308458
 31
0.0
  0
LINE
  5
21B
330
1F
100
AcDbEntity
  8
0
  6
Continuous
 62
     7
370
    25
100
AcDbLine
 10
421.7662067631
 20
292.5695836987
 30
0.0
 11
421.9779882485
 21
292.4473248495
 31
0.0
  0
LINE
  5
21C
330
1F
100
AcDbEntity
  8
0
  6
Continuous
 62
     7
370
    25
100
AcDbLine
 10
431.5242803435
 20
298.2027996702
 30
0.0
 11
433.8930880604
 21
296.8353160829
 31
0.0
  0
LINE
  5
21D
330
1F
100
AcDbEntity
  8
0
  6
Continuous
 62
     7
370
    25
100
AcDbLine
 10
431.5242803435
 20
298.2027996702
 30
0.0
 11
437.2518452711
 21
301.5092525231
 31
0.0
  0
LINE
  5
21E
330
1F
100
AcDbEntity
  8
0
  6
Continuous
 62
     7
370
    25
100
AcDbLine
 10
437.2518452711
 20
301.5092525231
 30
0.0
 11
387.754370588
 21
330.0835364369
 31
0.0
  0
LINE
  5
21F
330
1F
100
AcDbEntity
  8
0
  6
Continuous
 62
     7
370
    25
100
AcDbLine
 10
389.1685841504
 20
330.8999445487
 30
0.0
 11
387.754370588
 21
330.0835364369
 31
0.0
  0
LINE
  5
220
330
1F
100
AcDbEntity
  8
0
  6
Continuous
 62
     7
370
    25
100
AcDbLine
 10
440.0445665078
 20
301.5298650935
 30
0.0
 11
389.1685841504
 21
330.8999445487
 31
0.0
  0
LINE
  5
221
330
1F
100
AcDbEntity
  8
0
  6
Continuous
 62
     7
370
    25
100
AcDbLine
 10
433.8930880604
 20
296.8353160829
 30
0.0
 11
433.8930880604
 21
286.4265173924
 31
0.0
  0
LINE
  5
222
330
1F
100
AcDbEntity
  8
0
  6
Continuous
 62
     7
370
    25
100
AcDbLine
 10
431.5242803435
 20
287.7940009797
 30
0.0
 11
431.5242803435
 21
298.2027996702
 31
0.0
  0
SPLINE
  5
223
330
1F
100
AcDbEntity
  8
0
  6
Continuous
 62
     7
370
    25
100
AcDbSpline
210
0.0
220
0.0
230
1.0
 70
     8
 71
     3
 72
    27
 73
    23
 74
     0
 42
0.000000001
 43
0.00000001
 40
0.0
 40
0.0
 40
0.0
 40
0.0
 40
0.0273190608754464
 40
0.0817809160213731
 40
0.134707880474531
 40
0.1891697307865522
 40
0.2420966929099774
 40
0.2965585404578255
 40
0.3494855040597483
 40
0.4039473530249085
 40
0.4568743171445097
 40
0.5113361663813201
 40
0.5642631336652094
 40
0.6187249864157164
 40
0.671651955205701
 40
0.7261138097759552
 40
0.779040777691894
 40
0.8335026312904451
 40
0.8864295998439924
 40
0.9408914543937018
 40
0.9938184199599923
 40
1.0
 40
1.0
 40
1.0
 40
1.0
 10
403.9572030669523
 20
267.7377215567819
 30
0.0
 10
403.9292096938176
 20
267.7201338125172
 30
0.0
 10
403.8454101917806
 20
267.6674840584396
 30
0.0
 10
403.6781307391581
 20
267.6349358951891
 30
0.0
 10
403.4621928904621
 20
267.6386633535564
 30
0.0
 10
403.2326528344698
 20
267.696405223247
 30
0.0
 10
402.993654928879
 20
267.8044008509352
 30
0.0
 10
402.7557468927113
 20
267.9584712973447
 30
0.0
 10
402.521531948648
 20
268.1568149464741
 30
0.0
 10
402.3018627330732
 20
268.390332808853
 30
0.0
 10
402.0990110403833
 20
268.6566009959657
 30
0.0
 10
401.9223228802061
 20
268.9432690958132
 30
0.0
 10
401.7735988188032
 20
269.2473699612742
 30
0.0
 10
401.6597589614354
 20
269.5548394972217
 30
0.0
 10
401.5820066531086
 20
269.8625377524914
 30
0.0
 10
401.543945494805
 20
270.1561752929734
 30
0.0
 10
401.5458628314901
 20
270.4328298193951
 30
0.0
 10
401.5879266499423
 20
270.6792260002303
 30
0.0
 10
401.6687900704715
 20
270.8945917526126
 30
0.0
 10
401.7882610439573
 20
271.0624578303775
 30
0.0
 10
401.8889984267533
 20
271.1627542720546
 30
0.0
 10
401.955252522483
 20
271.1904390236248
 30
0.0
 10
401.9621813851632
 20
271.1933342988505
 30
0.0
  0
LINE
  5
224
330
1F
100
AcDbEntity
  8
0
  6
Continuous
 62
     7
370
    25
100
AcDbLine
 10
413.9705572897
 20
290.4570106416
 30
0.0
 11
400.8200998411
 21
309.8147053876
 31
0.0
  0
LWPOLYLINE
  5
225
330
1F
100
AcDbEntity
  8
0
  6
Continuous
 62
     7
370
    25
100
AcDbPolyline
 90
       28
 70
   128
 43
0.0
 10
387.8274183709
 20
322.4475372989
 10
388.3452795927
 20
322.141281954
 10
388.862832146
 20
321.820608301
 10
389.3797675461
 20
321.4857074758
 10
389.8957776764
 20
321.1367790944
 10
390.4105549717
 20
320.7740311337
 10
390.9237926015
 20
320.3976798078
 10
391.4351846532
 20
320.007949439
 10
391.9444263141
 20
319.6050723242
 10
392.4512140534
 20
319.1892885961
 10
392.9552458027
 20
318.7608460806
 10
393.4562211366
 20
318.3200001486
 10
393.9538414512
 20
317.8670135641
 10
394.4478101424
 20
317.4021563275
 10
394.9378327828
 20
316.9257055146
 10
395.4236172968
 20
316.4379451114
 10
395.9048741351
 20
315.939165845
 10
396.3813164469
 20
315.4296650104
 10
396.8526602512
 20
314.9097462928
 10
397.318624606
 20
314.3797195873
 10
397.7789317755
 20
313.8399008134
 10
398.2333073961
 20
313.2906117275
 10
398.6814806394
 20
312.7321797306
 10
399.123184374
 20
312.1649376731
 10
399.5581553247
 20
311.5892236568
 10
399.9861342293
 20
311.0053808331
 10
400.4068659931
 20
310.4137571987
 10
400.8200998411
 20
309.8147053876
  0
LINE
  5
226
330
1F
100
AcDbEntity
  8
0
  6
Continuous
 62
     7
370
    25
100
AcDbLine
 10
387.8274183709
 20
322.4475372989
 30
0.0
 11
387.754370588
 21
322.4897068864
 31
0.0
  0
LINE
  5
227
330
1F
100
AcDbEntity
  8
0
  6
Continuous
 62
     7
370
    25
100
AcDbLine
 10
387.754370588
 20
322.4897068864
 30
0.0
 11
387.754370588
 21
330.0835364369
 31
0.0
  0
LINE
  5
228
330
1F
100
AcDbEntity
  8
0
  6
Continuous
 62
     7
370
    25
100
AcDbLine
 10
393.0576714469
 20
333.5533372622
 30
0.0
 11
446.0906800359
 21
302.9380330688
 31
0.0
  0
LINE
  5
229
330
1F
100
AcDbEntity
  8
0
  6
Continuous
 62
     7
370
    25
100
AcDbLine
 10
442.2015927394
 20
300.6929107613
 30
0.0
 11
389.1685841504
 21
331.3082149547
 31
0.0
  0
LINE
  5
22A
330
1F
100
AcDbEntity
  8
0
  6
Continuous
 62
     7
370
    25
100
AcDbLine
 10
393.0576714469
 20
333.5533372622
 30
0.0
 11
389.1685841504
 21
331.3082149547
 31
0.0
  0
LINE
  5
22B
330
1F
100
AcDbEntity
  8
0
  6
Continuous
 62
     7
370
    25
100
AcDbLine
 10
389.1685841504
 20
330.8999445487
 30
0.0
 11
389.1685841504
 21
331.3082149547
 31
0.0
  0
SPLINE
  5
22C
330
1F
100
AcDbEntity
  8
0
  6
Continuous
 62
     7
370
    25
100
AcDbSpline
210
0.0
220
0.0
230
1.0
 70
     8
 71
     3
 72
    27
 73
    23
 74
     0
 42
0.000000001
 43
0.00000001
 40
0.0
 40
0.0
 40
0.0
 40
0.0
 40
0.0273190601634382
 40
0.081780915309475
 40
0.134707879762812
 40
0.1891697300750315
 40
0.2420966921985096
 40
0.2965585397464029
 40
0.3494855033483301
 40
0.4039473523135053
 40
0.4568743164331371
 40
0.5113361656699928
 40
0.5642631329539584
 40
0.618724985704541
 40
0.671651954494623
 40
0.7261138090649779
 40
0.779040776981016
 40
0.8335026305796746
 40
0.8864295991333099
 40
0.9408914536831132
 40
0.9938184192495021
 40
1.0
 40
1.0
 40
1.0
 40
1.0
 10
383.0975530219607
 20
279.7797412061879
 30
0.0
 10
383.0695596495269
 20
279.7621534622438
 30
0.0
 10
382.9857601481334
 20
279.7095037082123
 30
0.0
 10
382.8184806963745
 20
279.676955544594
 30
0.0
 10
382.602542848294
 20
279.6806830024292
 30
0.0
 10
382.3730027927855
 20
279.7384248716565
 30
0.0
 10
382.1340048871543
 20
279.8464204986336
 30
0.0
 10
381.8960968507131
 20
280.0004909443098
 30
0.0
 10
381.6618819065609
 20
280.1988345929243
 30
0.0
 10
381.442212690955
 20
280.4323524549564
 30
0.0
 10
381.2393609979756
 20
280.6986206417114
 30
0.0
 10
381.0626728373247
 20
280.9852887412417
 30
0.0
 10
380.9139487755039
 20
281.2893896065652
 30
0.0
 10
380.8001089177534
 20
281.5968591425384
 30
0.0
 10
380.7223566089093
 20
281.9045573978958
 30
0.0
 10
380.6842954500201
 20
282.1981949385492
 30
0.0
 10
380.6862127861922
 20
282.4748494652979
 30
0.0
 10
380.7282766041615
 20
282.7212456465767
 30
0.0
 10
380.8091400241528
 20
282.9366113994096
 30
0.0
 10
380.9286109970727
 20
283.1044774778095
 30
0.0
 10
381.0293483803743
 20
283.2047739203342
 30
0.0
 10
381.0956024768352
 20
283.2324586724031
 30
0.0
 10
381.1025313403049
 20
283.2353539479789
 30
0.0
  0
LINE
  5
22D
330
1F
100
AcDbEntity
  8
0
  6
Continuous
 62
     7
370
    25
100
AcDbLine
 10
373.1183291044
 20
314.0404999843
 30
0.0
 11
387.754370588
 21
322.4897068864
 31
0.0
  0
LWPOLYLINE
  5
22E
330
1F
100
AcDbEntity
  8
0
  6
Continuous
 62
     7
370
    25
100
AcDbPolyline
 90
       24
 70
   128
 43
0.0
 10
424.4029879314
 20
261.0336397652
 10
424.3982193651
 20
261.0728469088
 10
424.4119511809
 20
261.1113428512
 10
424.4431649531
 20
261.1462725243
 10
424.4895456989
 20
261.1750453541
 10
424.5476535705
 20
261.1955273914
 10
424.613178973
 20
261.2061995773
 10
424.681262187
 20
261.2062704044
 10
424.746853792
 20
261.19573462
 10
424.8050891587
 20
261.1753736149
 10
424.8516492363
 20
261.1466974717
 10
424.883080877
 20
261.1118329689
 10
424.8970529397
 20
261.0733658469
 10
424.8925291804
 20
261.0341490364
 10
424.8698451057
 20
260.9970910688
 10
424.8306830896
 20
260.964940364
 10
424.7779475997
 20
260.9400813926
 10
424.715549786
 20
260.9243578309
 10
424.648117409
 20
260.9189358235
 10
424.5806516195
 20
260.9242174959
 10
424.5181560465
 20
260.9398111306
 10
424.4652657008
 20
260.9645602191
 10
424.4259032173
 20
260.9966292347
 10
424.4029879314
 20
261.0336397652
  0
LINE
  5
22F
330
1F
100
AcDbEntity
  8
0
  6
Continuous
 62
     7
370
    25
100
AcDbLine
 10
424.4029879314
 20
260.9928127246
 30
0.0
 11
424.3976668964
 21
261.0224304766
 31
0.0
  0
LWPOLYLINE
  5
230
330
1F
100
AcDbEntity
  8
0
  6
Continuous
 62
     7
370
    25
100
AcDbPolyline
 90
       12
 70
   128
 43
0.0
 10
424.8976668964
 20
261.0224304766
 10
424.8925291804
 20
260.9933219959
 10
424.8698451057
 20
260.9562640282
 10
424.8306830896
 20
260.9241133234
 10
424.7779475997
 20
260.899254352
 10
424.715549786
 20
260.8835307903
 10
424.648117409
 20
260.8781087829
 10
424.5806516195
 20
260.8833904553
 10
424.5181560465
 20
260.89898409
 10
424.4652657008
 20
260.9237331785
 10
424.4259032173
 20
260.9558021941
 10
424.4029879314
 20
260.9928127246
  0
LWPOLYLINE
  5
231
330
1F
100
AcDbEntity
  8
0
  6
Continuous
 62
     7
370
    25
100
AcDbPolyline
 90
       24
 70
   128
 43
0.0
 10
442.0806574611
 20
250.8285383674
 10
442.0758888947
 20
250.867745511
 10
442.0896207106
 20
250.9062414534
 10
442.1208344828
 20
250.9411711265
 10
442.1672152285
 20
250.9699439563
 10
442.2253231002
 20
250.9904259936
 10
442.2908485027
 20
251.0010981795
 10
442.3589317167
 20
251.0011690066
 10
442.4245233216
 20
250.9906332222
 10
442.4827586883
 20
250.9702722171
 10
442.529318766
 20
250.941596074
 10
442.5607504067
 20
250.9067315711
 10
442.5747224694
 20
250.8682644492
 10
442.5701987101
 20
250.8290476387
 10
442.5475146354
 20
250.791989671
 10
442.5083526193
 20
250.7598389662
 10
442.4556171294
 20
250.7349799948
 10
442.3932193157
 20
250.7192564331
 10
442.3257869386
 20
250.7138344257
 10
442.2583211491
 20
250.7191160981
 10
442.1958255762
 20
250.7347097329
 10
442.1429352304
 20
250.7594588213
 10
442.103572747
 20
250.7915278369
 10
442.0806574611
 20
250.8285383674
  0
LINE
  5
232
330
1F
100
AcDbEntity
  8
0
  6
Continuous
 62
     7
370
    25
100
AcDbLine
 10
442.0806574611
 20
250.7877113268
 30
0.0
 11
442.0753364261
 21
250.8173290788
 31
0.0
  0
LWPOLYLINE
  5
233
330
1F
100
AcDbEntity
  8
0
  6
Continuous
 62
     7
370
    25
100
AcDbPolyline
 90
       12
 70
   128
 43
0.0
 10
442.5753364261
 20
250.8173290788
 10
442.5701987101
 20
250.7882205981
 10
442.5475146354
 20
250.7511626304
 10
442.5083526193
 20
250.7190119256
 10
442.4556171294
 20
250.6941529542
 10
442.3932193157
 20
250.6784293925
 10
442.3257869386
 20
250.6730073851
 10
442.2583211491
 20
250.6782890575
 10
442.1958255762
 20
250.6938826923
 10
442.1429352304
 20
250.7186317807
 10
442.103572747
 20
250.7507007963
 10
442.0806574611
 20
250.7877113268
  0
LINE
  5
234
330
1F
100
AcDbEntity
  8
0
  6
Continuous
 62
     7
370
    25
100
AcDbLine
 10
455.3537788695
 20
269.5472796805
 30
0.0
 11
455.3537788695
 21
267.0568302042
 31
0.0
  0
LINE
  5
235
330
1F
100
AcDbEntity
  8
0
  6
Continuous
 62
     7
370
    25
100
AcDbLine
 10
457.475099213
 20
270.7718918482
 30
0.0
 11
455.3537788695
 21
269.5472796805
 31
0.0
  0
LINE
  5
236
330
1F
100
AcDbEntity
  8
0
  6
Continuous
 62
     7
370
    25
100
AcDbLine
 10
457.475099213
 20
270.7718918482
 30
0.0
 11
457.475099213
 21
268.2814423719
 31
0.0
  0
LINE
  5
237
330
1F
100
AcDbEntity
  8
0
  6
Continuous
 62
     7
370
    25
100
AcDbLine
 10
473.5971338241
 20
277.5884948467
 30
0.0
 11
473.5971338241
 21
280.078944323
 31
0.0
  0
LINE
  5
238
330
1F
100
AcDbEntity
  8
0
  6
Continuous
 62
     7
370
    25
100
AcDbLine
 10
475.7184541676
 20
281.3035564907
 30
0.0
 11
473.5971338241
 21
280.078944323
 31
0.0
  0
LINE
  5
239
330
1F
100
AcDbEntity
  8
0
  6
Continuous
 62
     7
370
    25
100
AcDbLine
 10
475.7184541676
 20
278.8131070145
 30
0.0
 11
475.7184541676
 21
281.3035564907
 31
0.0
  0
LINE
  5
23A
330
1F
100
AcDbEntity
  8
0
  6
Continuous
 62
     7
370
    25
100
AcDbLine
 10
449.6262139418
 20
244.1942249067
 30
0.0
 11
449.6262139418
 21
215.6152964907
 31
0.0
  0
LINE
  5
23B
330
1F
100
AcDbEntity
  8
0
  6
Continuous
 62
     7
370
    25
100
AcDbLine
 10
469.2484271198
 20
258.5457756385
 30
0.0
 11
469.2484271198
 21
259.3185832784
 31
0.0
  0
LINE
  5
23C
330
1F
100
AcDbEntity
  8
0
  6
Continuous
 62
     7
370
    25
100
AcDbLine
 10
469.2484271198
 20
260.9516649021
 30
0.0
 11
469.2484271198
 21
277.0783459369
 31
0.0
  0
LINE
  5
23D
330
1F
100
AcDbEntity
  8
0
  6
Continuous
 62
     7
370
    25
100
AcDbLine
 10
469.2484271198
 20
277.0783459369
 30
0.0
 11
470.6626406821
 21
277.8947540487
 31
0.0
  0
LINE
  5
23E
330
1F
100
AcDbEntity
  8
0
  6
Continuous
 62
     7
370
    25
100
AcDbLine
 10
470.6626406821
 20
279.7319708754
 30
0.0
 11
470.6626406821
 21
277.8947540487
 31
0.0
  0
LINE
  5
23F
330
1F
100
AcDbEntity
  8
0
  6
Continuous
 62
     7
370
    25
100
AcDbLine
 10
472.2539568888
 20
280.6506181676
 30
0.0
 11
470.6626406821
 21
279.7319708754
 31
0.0
  0
LINE
  5
240
330
1F
100
AcDbEntity
  8
0
  6
Continuous
 62
     7
370
    25
100
AcDbLine
 10
472.2539568888
 20
277.9833754184
 30
0.0
 11
472.2539568888
 21
280.6506181676
 31
0.0
  0
LINE
  5
241
330
1F
100
AcDbEntity
  8
0
  6
Continuous
 62
     7
370
    25
100
AcDbLine
 10
458.076139977
 20
272.4659386802
 30
0.0
 11
456.4848237704
 21
271.5472913881
 31
0.0
  0
LINE
  5
242
330
1F
100
AcDbEntity
  8
0
  6
Continuous
 62
     7
370
    25
100
AcDbLine
 10
458.076139977
 20
270.6287218535
 30
0.0
 11
458.076139977
 21
272.4659386802
 31
0.0
  0
LINE
  5
243
330
1F
100
AcDbEntity
  8
0
  6
Continuous
 62
     7
370
    25
100
AcDbLine
 10
458.076139977
 20
270.6287218535
 30
0.0
 11
459.4903535394
 21
271.4451299653
 31
0.0
  0
LINE
  5
244
330
1F
100
AcDbEntity
  8
0
  6
Continuous
 62
     7
370
    25
100
AcDbLine
 10
459.4903535394
 20
271.4451299653
 30
0.0
 11
459.4903535394
 21
270.7918973158
 31
0.0
  0
LINE
  5
245
330
1F
100
AcDbEntity
  8
0
  6
Continuous
 62
     7
370
    25
100
AcDbLine
 10
422.7208009177
 20
292.8761414758
 30
0.0
 11
458.076139977
 21
272.4659386802
 31
0.0
  0
LINE
  5
246
330
1F
100
AcDbEntity
  8
0
  6
Continuous
 62
     7
370
    25
100
AcDbLine
 10
457.475099213
 20
270.7718918482
 30
0.0
 11
456.4848237704
 21
271.5472913881
 31
0.0
  0
LINE
  5
247
330
1F
100
AcDbEntity
  8
0
  6
Continuous
 62
     7
370
    25
100
AcDbLine
 10
455.3537788695
 20
269.5472796805
 30
0.0
 11
419.9984398101
 21
289.957482476
 31
0.0
  0
LINE
  5
248
330
1F
100
AcDbEntity
  8
0
  6
Continuous
 62
     7
370
    25
100
AcDbLine
 10
419.9984398101
 20
289.957482476
 30
0.0
 11
422.296862798
 21
291.2843338241
 31
0.0
  0
LINE
  5
249
330
1F
100
AcDbEntity
  8
0
  6
Continuous
 62
     7
370
    25
100
AcDbLine
 10
421.3065873553
 20
292.059733364
 30
0.0
 11
422.296862798
 21
291.2843338241
 31
0.0
  0
LINE
  5
24A
330
1F
100
AcDbEntity
  8
0
  6
Continuous
 62
     7
370
    25
100
AcDbLine
 10
422.7208009177
 20
292.8761414758
 30
0.0
 11
421.3065873553
 21
292.059733364
 31
0.0
  0
LINE
  5
24B
330
1F
100
AcDbEntity
  8
0
  6
Continuous
 62
     7
370
    25
100
AcDbLine
 10
419.9984398101
 20
271.9935846145
 30
0.0
 11
419.9984398101
 21
289.957482476
 31
0.0
  0
LINE
  5
24C
330
1F
100
AcDbEntity
  8
0
  6
Continuous
 62
     7
370
    25
100
AcDbLine
 10
419.9984398101
 20
271.9935846145
 30
0.0
 11
449.6262139418
 21
254.8898346719
 31
0.0
  0
LINE
  5
24D
330
1F
100
AcDbEntity
  8
0
  6
Continuous
 62
     7
370
    25
100
AcDbLine
 10
458.076139977
 20
272.2615380771
 30
0.0
 11
459.4903535394
 21
271.4451299653
 31
0.0
  0
LINE
  5
24E
330
1F
100
AcDbEntity
  8
0
  6
Continuous
 62
     7
370
    25
100
AcDbLine
 10
449.6262139418
 20
250.8071306124
 30
0.0
 11
419.9984398101
 21
267.9108805551
 31
0.0
  0
LINE
  5
24F
330
1F
100
AcDbEntity
  8
0
  6
Continuous
 62
     7
370
    25
100
AcDbLine
 10
449.6262139418
 20
244.1942249067
 30
0.0
 11
414.2708748825
 21
264.6044277022
 31
0.0
  0
LINE
  5
250
330
1F
100
AcDbEntity
  8
0
  6
Continuous
 62
     7
370
    25
100
AcDbLine
 10
414.2708748825
 20
264.6044277022
 30
0.0
 11
419.9984398101
 21
267.9108805551
 31
0.0
  0
LWPOLYLINE
  5
251
330
1F
100
AcDbEntity
  8
0
  6
Continuous
 62
     7
370
    25
100
AcDbPolyline
 90
       48
 70
   128
 43
0.0
 10
443.0324432073
 20
251.2663601753
 10
443.1203821486
 20
251.208309694
 10
443.1941334802
 20
251.1440107139
 10
443.2523811078
 20
251.0746106517
 10
443.2940856011
 20
251.0013479533
 10
443.3185027424
 20
250.9255299932
 10
443.3251968073
 20
250.8485097448
 10
443.31404834
 20
250.7716616361
 10
443.2852562851
 20
250.6963570236
 10
443.2393344376
 20
250.6239397197
 10
443.177102274
 20
250.555702013
 10
443.0996703286
 20
250.4928616071
 10
443.0084203764
 20
250.4365398903
 10
442.9049807749
 20
250.3877419252
 10
442.7911974063
 20
250.3473385125
 10
442.6691007374
 20
250.3160506521
 10
442.5408695863
 20
250.2944366766
 10
442.4087922408
 20
250.2828822879
 10
442.2752256243
 20
250.2815936743
 10
442.1425532363
 20
250.2905938313
 10
442.0131426186
 20
250.3097221507
 10
441.8893031068
 20
250.3386372873
 10
441.7732446199
 20
250.3768232498
 10
441.6670382244
 20
250.4235986087
 10
441.5725791759
 20
250.4781286567
 10
441.4915530984
 20
250.5394403038
 10
441.4254059041
 20
250.6064394421
 10
441.3753179912
 20
250.6779304706
 10
441.3421831799
 20
250.75263763
 10
441.3265927615
 20
250.8292277693
 10
441.3288249475
 20
250.9063341357
 10
441.3488399044
 20
250.9825807643
 10
441.3862804649
 20
251.0566070322
 10
441.4404785012
 20
251.1270919388
 10
441.5104668482
 20
251.1927776793
 10
441.5949965621
 20
251.2524920902
 10
441.6925592082
 20
251.3051695664
 10
441.8014137788
 20
251.349870077
 10
441.9196177613
 20
251.3857959403
 10
442.0450618031
 20
251.4123060586
 10
442.1755073522
 20
251.4289273581
 10
442.3086266046
 20
251.4353632313
 10
442.4420440442
 20
251.4314988299
 10
442.5733788336
 20
251.4174031142
 10
442.7002873003
 20
251.3933276227
 10
442.8205047598
 20
251.3597019831
 10
442.9318859287
 20
251.3171262456
 10
443.0324432073
 20
251.2663601753
  0
LWPOLYLINE
  5
252
330
1F
100
AcDbEntity
  8
0
  6
Continuous
 62
     7
370
    25
100
AcDbPolyline
 90
       48
 70
   128
 43
0.0
 10
425.3547736776
 20
261.4714615731
 10
425.442712619
 20
261.4134110918
 10
425.5164639506
 20
261.3491121117
 10
425.5747115782
 20
261.2797120495
 10
425.6164160715
 20
261.2064493511
 10
425.6408332128
 20
261.130631391
 10
425.6475272776
 20
261.0536111426
 10
425.6363788103
 20
260.9767630339
 10
425.6075867554
 20
260.9014584213
 10
425.561664908
 20
260.8290411175
 10
425.4994327443
 20
260.7608034108
 10
425.4220007989
 20
260.6979630048
 10
425.3307508467
 20
260.6416412881
 10
425.2273112452
 20
260.5928433229
 10
425.1135278766
 20
260.5524399102
 10
424.9914312077
 20
260.5211520498
 10
424.8632000566
 20
260.4995380743
 10
424.7311227111
 20
260.4879836856
 10
424.5975560946
 20
260.4866950721
 10
424.4648837066
 20
260.4956952291
 10
424.3354730889
 20
260.5148235485
 10
424.2116335772
 20
260.5437386851
 10
424.0955750903
 20
260.5819246476
 10
423.9893686948
 20
260.6287000065
 10
423.8949096463
 20
260.6832300545
 10
423.8138835687
 20
260.7445417016
 10
423.7477363744
 20
260.8115408399
 10
423.6976484616
 20
260.8830318683
 10
423.6645136502
 20
260.9577390277
 10
423.6489232319
 20
261.0343291671
 10
423.6511554178
 20
261.1114355335
 10
423.6711703747
 20
261.1876821621
 10
423.7086109352
 20
261.26170843
 10
423.7628089716
 20
261.3321933366
 10
423.8327973186
 20
261.3978790771
 10
423.9173270325
 20
261.457593488
 10
424.0148896786
 20
261.5102709642
 10
424.1237442491
 20
261.5549714748
 10
424.2419482317
 20
261.5908973381
 10
424.3673922734
 20
261.6174074564
 10
424.4978378225
 20
261.6340287559
 10
424.6309570749
 20
261.6404646291
 10
424.7643745145
 20
261.6366002277
 10
424.8957093039
 20
261.622504512
 10
425.0226177706
 20
261.5984290205
 10
425.1428352301
 20
261.5648033809
 10
425.254216399
 20
261.5222276434
 10
425.3547736776
 20
261.4714615731
  0
LINE
  5
253
330
1F
100
AcDbEntity
  8
0
  6
Continuous
 62
     7
370
    25
100
AcDbLine
 10
449.6262139418
 20
215.6152964907
 30
0.0
 11
414.2708748825
 21
236.0254992862
 31
0.0
  0
LINE
  5
254
330
1F
100
AcDbEntity
  8
0
  6
Continuous
 62
     7
370
    25
100
AcDbLine
 10
414.2708748825
 20
236.0254992862
 30
0.0
 11
414.2708748825
 21
264.6044277022
 31
0.0
  0
LINE
  5
255
330
1F
100
AcDbEntity
  8
0
  6
Continuous
 62
     7
370
    25
100
AcDbLine
 10
420.7055465913
 20
271.5852478586
 30
0.0
 11
449.6262139418
 21
254.8897019718
 31
0.0
  0
LINE
  5
256
330
1F
100
AcDbEntity
  8
0
  6
Continuous
 62
     7
370
    25
100
AcDbLine
 10
420.7055465913
 20
271.5852478586
 30
0.0
 11
419.9984398101
 21
271.9935846145
 31
0.0
  0
LINE
  5
257
330
1F
100
AcDbEntity
  8
0
  6
Continuous
 62
     7
370
    25
100
AcDbLine
 10
419.9984398101
 20
270.3605029908
 30
0.0
 11
449.6262139418
 21
253.2567530481
 31
0.0
  0
LINE
  5
258
330
1F
100
AcDbEntity
  8
0
  6
Continuous
 62
     7
370
    25
100
AcDbLine
 10
419.9984398101
 20
270.3605029908
 30
0.0
 11
420.7055465913
 21
271.5852478586
 31
0.0
  0
LINE
  5
259
330
1F
100
AcDbEntity
  8
0
  6
Continuous
 62
     7
370
    25
100
AcDbLine
 10
475.7184541676
 20
281.3035564907
 30
0.0
 11
440.3631151083
 21
301.7137592863
 31
0.0
  0
LINE
  5
25A
330
1F
100
AcDbEntity
  8
0
  6
Continuous
 62
     7
370
    25
100
AcDbLine
 10
472.2539568888
 20
280.6506181676
 30
0.0
 11
473.5971338241
 21
280.078944323
 31
0.0
  0
LINE
  5
25B
330
1F
100
AcDbEntity
  8
0
  6
Continuous
 62
     7
370
    25
100
AcDbLine
 10
470.6626406821
 20
279.7319708754
 30
0.0
 11
435.3073016228
 21
300.142173671
 31
0.0
  0
LINE
  5
25C
330
1F
100
AcDbEntity
  8
0
  6
Continuous
 62
     7
370
    25
100
AcDbLine
 10
436.7215151852
 20
300.9585817828
 30
0.0
 11
435.3073016228
 21
300.142173671
 31
0.0
  0
LINE
  5
25D
330
1F
100
AcDbEntity
  8
0
  6
Continuous
 62
     7
370
    25
100
AcDbLine
 10
438.0646921205
 20
300.3869079382
 30
0.0
 11
436.7215151852
 21
300.9585817828
 31
0.0
  0
LINE
  5
25E
330
1F
100
AcDbEntity
  8
0
  6
Continuous
 62
     7
370
    25
100
AcDbLine
 10
438.0646921205
 20
300.3869079382
 30
0.0
 11
440.3631151083
 21
301.7137592863
 31
0.0
  0
LINE
  5
25F
330
1F
100
AcDbEntity
  8
0
  6
Continuous
 62
     7
370
    25
100
AcDbLine
 10
419.9984398101
 20
267.9108805551
 30
0.0
 11
419.9984398101
 21
270.3605029908
 31
0.0
  0
LINE
  5
260
330
1F
100
AcDbEntity
  8
0
  6
Continuous
 62
     7
370
    25
100
AcDbLine
 10
470.6626406821
 20
277.8947540487
 30
0.0
 11
435.3073016228
 21
298.3049568443
 31
0.0
  0
LINE
  5
261
330
1F
100
AcDbEntity
  8
0
  6
Continuous
 62
     7
370
    25
100
AcDbLine
 10
435.3073016228
 20
298.3049568443
 30
0.0
 11
435.3073016228
 21
300.142173671
 31
0.0
  0
LINE
  5
262
330
1F
100
AcDbEntity
  8
0
  6
Continuous
 62
     7
370
    25
100
AcDbLine
 10
433.8930880604
 20
286.4265173924
 30
0.0
 11
433.8930880604
 21
297.4885487324
 31
0.0
  0
LINE
  5
263
330
1F
100
AcDbEntity
  8
0
  6
Continuous
 62
     7
370
    25
100
AcDbLine
 10
469.2484271198
 20
277.0783459369
 30
0.0
 11
433.8930880604
 21
297.4885487324
 31
0.0
  0
LINE
  5
264
330
1F
100
AcDbEntity
  8
0
  6
Continuous
 62
     7
370
    25
100
AcDbLine
 10
463.0258874453
 20
264.5438605942
 30
0.0
 11
469.2484271198
 21
260.9516649021
 31
0.0
  0
LINE
  5
265
330
1F
100
AcDbEntity
  8
0
  6
Continuous
 62
     7
370
    25
100
AcDbLine
 10
435.3073016228
 20
298.3049568443
 30
0.0
 11
433.8930880604
 21
297.4885487324
 31
0.0
  0
SPLINE
  5
266
330
1F
100
AcDbEntity
  8
0
  6
Continuous
 62
     7
370
    25
100
AcDbSpline
210
0.0
220
0.0
230
1.0
 70
     8
 71
     3
 72
    12
 73
     8
 74
     0
 42
0.000000001
 43
0.00000001
 40
0.0
 40
0.0
 40
0.0
 40
0.0
 40
0.220788986772736
 40
0.441577974588386
 40
0.6623669331849159
 40
0.8831559491547757
 40
1.0
 40
1.0
 40
1.0
 40
1.0
 10
442.1839150698601
 20
250.3443285639711
 30
0.0
 10
442.1695876624643
 20
250.3544056417865
 30
0.0
 10
442.1409328476053
 20
250.3745597974649
 30
0.0
 10
442.1228089714238
 20
250.4131711878704
 30
0.0
 10
442.1271897314944
 20
250.4521512479825
 30
0.0
 10
442.1473957740577
 20
250.4840430544104
 30
0.0
 10
442.1716865700225
 20
250.4981355388938
 30
0.0
 10
442.1800928408465
 20
250.5030124989293
 30
0.0
  0
LWPOLYLINE
  5
267
330
1F
100
AcDbEntity
  8
0
  6
Continuous
 62
     7
370
    25
100
AcDbPolyline
 90
       12
 70
   128
 43
0.0
 10
442.4705800113
 20
250.5029763922
 10
442.4954953066
 20
250.4866430464
 10
442.5206918463
 20
250.450715731
 10
442.5238635472
 20
250.4120126838
 10
442.5046528312
 20
250.3748923346
 10
442.46522554
 20
250.3435221483
 10
442.4100268669
 20
250.3214292896
 10
442.3452800086
 20
250.3111152775
 10
442.2782846004
 20
250.3137602051
 10
442.2165939451
 20
250.3290698471
 10
442.1839150699
 20
250.344328564
 10
442.1839150699
 20
250.344328564
  0
SPLINE
  5
268
330
1F
100
AcDbEntity
  8
0
  6
Continuous
 62
     7
370
    25
100
AcDbSpline
210
0.0
220
0.0
230
1.0
 70
     8
 71
     3
 72
    27
 73
    23
 74
     0
 42
0.000000001
 43
0.00000001
 40
0.0
 40
0.0
 40
0.0
 40
0.0
 40
0.0176924290499861
 40
0.0721549190523232
 40
0.1250824832704743
 40
0.1795449509309335
 40
0.232472512765408
 40
0.2869349766656764
 40
0.3398625484197478
 40
0.3943250224233878
 40
0.4472525980784695
 40
0.501715075713978
 40
0.5546426605954097
 40
0.6091051491805053
 40
0.6620327317767001
 40
0.7164952184207813
 40
0.7694227974730135
 40
0.8238852799696783
 40
0.8768128632151335
 40
0.9312753510666838
 40
0.9842029230956442
 40
1.0
 40
1.0
 40
1.0
 40
1.0
 10
441.3284100693753
 20
250.8540961858336
 30
0.0
 10
441.3275656541986
 20
250.8647781484237
 30
0.0
 10
441.3241218812406
 20
250.9083423274198
 30
0.0
 10
441.3471378680571
 20
250.9835597167249
 30
0.0
 10
441.3974567944002
 20
251.0770647043869
 30
0.0
 10
441.4754679880502
 20
251.1634050191632
 30
0.0
 10
441.5778968726697
 20
251.2416960105603
 30
0.0
 10
441.7006612967922
 20
251.3083616614081
 30
0.0
 10
441.84231862191
 20
251.3627013994414
 30
0.0
 10
441.996357109769
 20
251.4021522753991
 30
0.0
 10
442.1611764026352
 20
251.4262978680133
 30
0.0
 10
442.3291482096692
 20
251.4340643727874
 30
0.0
 10
442.4985406495093
 20
251.4254038990294
 30
0.0
 10
442.6615095532571
 20
251.4006901442054
 30
0.0
 10
442.8163789588514
 20
251.3601343702799
 30
0.0
 10
442.9559638784668
 20
251.3056207444785
 30
0.0
 10
443.0788782323049
 20
251.2377514365523
 30
0.0
 10
443.1792348656383
 20
251.1596788828214
 30
0.0
 10
443.2567318361349
 20
251.0721597609746
 30
0.0
 10
443.3050526074041
 20
250.9792621014797
 30
0.0
 10
443.3270100472855
 20
250.9051161464551
 30
0.0
 10
443.3232006129686
 20
250.8636426494718
 30
0.0
 10
443.3223249747834
 20
250.8541095338939
 30
0.0
  0
LINE
  5
269
330
1F
100
AcDbEntity
  8
0
  6
Continuous
 62
     7
370
    25
100
AcDbLine
 10
463.0258874453
 20
264.5437278941
 30
0.0
 11
469.2484271198
 21
260.9515322021
 31
0.0
  0
LINE
  5
26A
330
1F
100
AcDbEntity
  8
0
  6
Continuous
 62
     7
370
    25
100
AcDbLine
 10
463.0258874453
 20
262.9107789704
 30
0.0
 11
469.2484271198
 21
259.3185832784
 31
0.0
  0
LINE
  5
26B
330
1F
100
AcDbEntity
  8
0
  6
Continuous
 62
     7
370
    25
100
AcDbLine
 10
421.3065873553
 20
292.059733364
 30
0.0
 11
421.3065873553
 21
290.7126599795
 31
0.0
  0
SPLINE
  5
26C
330
1F
100
AcDbEntity
  8
0
  6
Continuous
 62
     7
370
    25
100
AcDbSpline
210
0.0
220
0.0
230
1.0
 70
     8
 71
     3
 72
    12
 73
     8
 74
     0
 42
0.000000001
 43
0.00000001
 40
0.0
 40
0.0
 40
0.0
 40
0.0
 40
0.2207889867739377
 40
0.4415779745907524
 40
0.662366933188657
 40
0.8831559491582343
 40
1.0
 40
1.0
 40
1.0
 40
1.0
 10
424.5062455401964
 20
260.5494299633959
 30
0.0
 10
424.4919181328006
 20
260.5595070411922
 30
0.0
 10
424.4632633179414
 20
260.5796611968324
 30
0.0
 10
424.44513944176
 20
260.6182725869394
 30
0.0
 10
424.4495202018309
 20
260.6572526466197
 30
0.0
 10
424.4697262443945
 20
260.6891444526021
 30
0.0
 10
424.494017040359
 20
260.7032369368094
 30
0.0
 10
424.5024233111828
 20
260.7081138967492
 30
0.0
  0
LWPOLYLINE
  5
26D
330
1F
100
AcDbEntity
  8
0
  6
Continuous
 62
     7
370
    25
100
AcDbPolyline
 90
       12
 70
   128
 43
0.0
 10
424.7929104817
 20
260.7080777884
 10
424.8178257769
 20
260.6917444427
 10
424.8430223166
 20
260.6558171275
 10
424.8461940175
 20
260.6171140806
 10
424.8269833016
 20
260.5799937319
 10
424.7875560103
 20
260.5486235461
 10
424.7323573372
 20
260.5265306879
 10
424.667610479
 20
260.5162166763
 10
424.6006150707
 20
260.5188616043
 10
424.5389244154
 20
260.5341712464
 10
424.5062455402
 20
260.5494299634
 10
424.5062455402
 20
260.5494299634
  0
SPLINE
  5
26E
330
1F
100
AcDbEntity
  8
0
  6
Continuous
 62
     7
370
    25
100
AcDbSpline
210
0.0
220
0.0
230
1.0
 70
     8
 71
     3
 72
    27
 73
    23
 74
     0
 42
0.000000001
 43
0.00000001
 40
0.0
 40
0.0
 40
0.0
 40
0.0
 40
0.0176924290499915
 40
0.0721549190523376
 40
0.1250824832704932
 40
0.1795449509309553
 40
0.2324725127654308
 40
0.2869349766657131
 40
0.3398625484197735
 40
0.3943250224234083
 40
0.4472525980784695
 40
0.5017150757139675
 40
0.5546426605954003
 40
0.6091051491804983
 40
0.6620327317766884
 40
0.7164952184207506
 40
0.7694227974729765
 40
0.8238852799696341
 40
0.8768128632150916
 40
0.9312753510666398
 40
0.9842029230956036
 40
1.0
 40
1.0
 40
1.0
 40
1.0
 10
423.6507405397116
 20
261.0591975836052
 30
0.0
 10
423.6498961245349
 20
261.0698795461961
 30
0.0
 10
423.646452351577
 20
261.1134437251953
 30
0.0
 10
423.6694683383935
 20
261.188661114503
 30
0.0
 10
423.7197872647366
 20
261.2821661021588
 30
0.0
 10
423.7977984583866
 20
261.3685064169318
 30
0.0
 10
423.9002273430061
 20
261.4467974083361
 30
0.0
 10
424.0229917671286
 20
261.5134630591949
 30
0.0
 10
424.1646490922465
 20
261.5678027972342
 30
0.0
 10
424.3186875801055
 20
261.6072536731893
 30
0.0
 10
424.4835068729716
 20
261.6313992657938
 30
0.0
 10
424.6514786800055
 20
261.6391657705562
 30
0.0
 10
424.8208711198457
 20
261.6305052967939
 30
0.0
 10
424.9838400235934
 20
261.6057915419779
 30
0.0
 10
425.1387094291878
 20
261.5652357680647
 30
0.0
 10
425.2782943488031
 20
261.5107221422667
 30
0.0
 10
425.4012087026412
 20
261.4428528343345
 30
0.0
 10
425.5015653359745
 20
261.3647802806009
 30
0.0
 10
425.5790623064712
 20
261.2772611587595
 30
0.0
 10
425.6273830777404
 20
261.1843634992691
 30
0.0
 10
425.6493405176219
 20
261.1102175442414
 30
0.0
 10
425.6455310833049
 20
261.0687440472563
 30
0.0
 10
425.6446554451198
 20
261.059210931678
 30
0.0
  0
LINE
  5
26F
330
1F
100
AcDbEntity
  8
0
  6
PHANTOM
 62
     1
370
    18
100
AcDbLine
 10
527.9359528535
 20
241.5646019838
 30
0.0
 11
506.7957972008
 21
229.360649894
 31
0.0
  0
LINE
  5
270
330
1F
100
AcDbEntity
  8
0
  6
PHANTOM
 62
     1
370
    18
100
AcDbLine
 10
504.7524280601
 20
238.0497521657
 30
0.0
 11
514.9432713833
 21
243.9328007921
 31
0.0
  0
LINE
  5
271
330
1F
100
AcDbEntity
  8
0
  6
PHANTOM
 62
     1
370
    18
100
AcDbLine
 10
400.8200998411
 20
309.8147053876
 30
0.0
 11
390.6292565178
 21
303.9316567613
 31
0.0
  0
LINE
  5
272
330
1F
100
AcDbEntity
  8
0
  6
PHANTOM
 62
     1
370
    18
100
AcDbLine
 10
373.1913768873
 20
313.9983303968
 30
0.0
 11
387.8274183709
 21
322.4475372989
 31
0.0
  0
ARC
  5
273
330
1F
100
AcDbEntity
  8
0
  6
PHANTOM
 62
     1
370
    18
100
AcDbCircle
 10
424.6476668964
 20
261.1687331055
 30
0.0
 40
0.3008127308626151
100
AcDbArc
 50
241.6691772321
 51
298.3308232301
  0
ARC
  5
274
330
1F
100
AcDbEntity
  8
0
  6
PHANTOM
 62
     1
370
    18
100
AcDbCircle
 10
424.6476668964
 20
261.0284539262
 30
0.0
 40
0.2050801240641078
100
AcDbArc
 50
224.8323151621
 51
315.1676848378
  0
LINE
  5
275
330
1F
100
AcDbEntity
  8
0
  6
PHANTOM
 62
     1
370
    18
100
AcDbLine
 10
424.505514696
 20
260.8623835519
 30
0.0
 11
424.5024253632
 21
260.8800364116
 31
0.0
  0
LWPOLYLINE
  5
276
330
1F
100
AcDbEntity
  8
0
  6
PHANTOM
 62
     1
370
    18
100
AcDbPolyline
 90
       10
 70
   128
 43
0.0
 10
424.7929104779
 20
260.8795716241
 10
424.7914408286
 20
260.8676930387
 10
424.7757213022
 20
260.8400232518
 10
424.7445565246
 20
260.8171258838
 10
424.7017054279
 20
260.8017626953
 10
424.6523364867
 20
260.7957867134
 10
424.6024043241
 20
260.7999187299
 10
424.5579314957
 20
260.8136603624
 10
424.524282081
 20
260.8353541675
 10
424.505514696
 20
260.8623835519
  0
ARC
  5
277
330
1F
100
AcDbEntity
  8
0
  6
PHANTOM
 62
     1
370
    18
100
AcDbCircle
 10
442.3253364261
 20
250.9636316622
 30
0.0
 40
0.3008126877896751
100
AcDbArc
 50
241.6691556768
 51
298.3308443311
  0
ARC
  5
278
330
1F
100
AcDbEntity
  8
0
  6
PHANTOM
 62
     1
370
    18
100
AcDbCircle
 10
442.3253364261
 20
250.8233525285
 30
0.0
 40
0.205080124064248
100
AcDbArc
 50
224.8323151622
 51
315.1676848378
  0
LINE
  5
279
330
1F
100
AcDbEntity
  8
0
  6
PHANTOM
 62
     1
370
    18
100
AcDbLine
 10
442.1831842256
 20
250.6572821541
 30
0.0
 11
442.1800948929
 21
250.6749350138
 31
0.0
  0
LWPOLYLINE
  5
27A
330
1F
100
AcDbEntity
  8
0
  6
PHANTOM
 62
     1
370
    18
100
AcDbPolyline
 90
       10
 70
   128
 43
0.0
 10
442.4705800076
 20
250.6744702264
 10
442.4691103582
 20
250.6625916409
 10
442.4533908318
 20
250.634921854
 10
442.4222260542
 20
250.6120244861
 10
442.3793749575
 20
250.5966612975
 10
442.3300060164
 20
250.5906853156
 10
442.2800738538
 20
250.5948173321
 10
442.2356010254
 20
250.6085589647
 10
442.2019516107
 20
250.6302527697
 10
442.1831842256
 20
250.6572821541
  0
ENDSEC
  0
SECTION
  2
OBJECTS
  0
DICTIONARY
  5
C
330
0
100
AcDbDictionary
281
     1
  3
ACAD_DETAILVIEWSTYLE
350
282
  3
ACAD_GROUP
350
D
  3
ACAD_LAYOUT
350
1A
  3
ACAD_MATERIAL
350
43
  3
ACAD_MLEADERSTYLE
350
6B
  3
ACAD_MLINESTYLE
350
17
  3
ACAD_PLOTSETTINGS
350
19
  3
ACAD_PLOTSTYLENAME
350
E
  3
ACAD_SCALELIST
350
47
  3
ACAD_SECTIONVIEWSTYLE
350
283
  3
ACAD_TABLESTYLE
350
69
  3
ACAD_VISUALSTYLE
350
2A
  3
ACDB_RECOMPOSE_DATA
350
27F
  3
AcDbVariableDictionary
350
27B
  0
SUN
  5
6D
330
29
100
AcDbSun
 90
        1
290
     0
 63
     7
421
 16777215
 40
1.0
291
     1
 91
  2455826
 92
 54000000
292
     0
 70
     2
 71
   256
280
     1
  0
DICTIONARY
  5
282
102
{ACAD_REACTORS
330
C
102
}
330
C
100
AcDbDictionary
281
     1
  0
DICTIONARY
  5
D
102
{ACAD_REACTORS
330
C
102
}
330
C
100
AcDbDictionary
281
     1
  0
DICTIONARY
  5
1A
102
{ACAD_REACTORS
330
C
102
}
330
C
100
AcDbDictionary
281
     1
  3
Layout1
350
1E
  3
Layout2
350
26
  3
Model
350
22
  0
DICTIONARY
  5
43
102
{ACAD_REACTORS
330
C
102
}
330
C
100
AcDbDictionary
281
     1
  3
ByBlock
350
45
  3
ByLayer
350
44
  3
Global
350
46
  0
DICTIONARY
  5
6B
102
{ACAD_REACTORS
330
C
102
}
330
C
100
AcDbDictionary
281
     1
  3
Standard
350
6C
  0
DICTIONARY
  5
17
102
{ACAD_REACTORS
330
C
102
}
330
C
100
AcDbDictionary
281
     1
  3
Standard
350
18
  0
DICTIONARY
  5
19
102
{ACAD_REACTORS
330
C
102
}
330
C
100
AcDbDictionary
281
     1
  0
ACDBDICTIONARYWDFLT
  5
E
102
{ACAD_REACTORS
330
C
102
}
330
C
100
AcDbDictionary
281
     1
  3
Normal
350
F
100
AcDbDictionaryWithDefault
340
F
  0
DICTIONARY
  5
47
102
{ACAD_REACTORS
330
C
102
}
330
C
100
AcDbDictionary
281
     1
  3
A0
350
48
  3
A1
350
49
  3
A2
350
4A
  3
A3
350
4B
  3
A4
350
4C
  3
A5
350
4D
  3
A6
350
4E
  3
A7
350
4F
  3
A8
350
50
  3
A9
350
51
  3
B0
350
52
  3
B1
350
53
  3
B2
350
54
  3
B3
350
55
  3
B4
350
56
  3
B5
350
57
  3
B6
350
58
  3
B7
350
59
  3
B8
350
5A
  3
B9
350
5B
  3
C0
350
5C
  3
C1
350
5D
  3
C2
350
5E
  3
C3
350
5F
  3
C4
350
60
  3
C5
350
61
  3
C6
350
62
  3
C7
350
63
  3
C8
350
64
  3
C9
350
65
  3
D0
350
66
  3
D1
350
67
  3
D2
350
68
  0
DICTIONARY
  5
283
102
{ACAD_REACTORS
330
C
102
}
330
C
100
AcDbDictionary
281
     1
  0
DICTIONARY
  5
69
102
{ACAD_REACTORS
330
C
102
}
330
C
100
AcDbDictionary
281
     1
  3
Standard
350
6A
  0
DICTIONARY
  5
2A
102
{ACAD_REACTORS
330
C
102
}
330
C
100
AcDbDictionary
281
     1
  3
2dWireframe
350
2F
  3
Basic
350
32
  3
Brighten
350
36
  3
ColorChange
350
3A
  3
Conceptual
350
34
  3
Dim
350
35
  3
EdgeColorOff
350
3D
  3
Facepattern
350
39
  3
Flat
350
2B
  3
FlatWithEdges
350
2C
  3
Gouraud
350
2D
  3
GouraudWithEdges
350
2E
  3
Hidden
350
31
  3
JitterOff
350
3B
  3
Linepattern
350
38
  3
OverhangOff
350
3C
  3
Realistic
350
33
  3
Shaded
350
42
  3
Shaded with edges
350
41
  3
Shades of Gray
350
3E
  3
Sketchy
350
3F
  3
Thicken
350
37
  3
Wireframe
350
30
  3
X-Ray
350
40
  0
XRECORD
  5
27F
102
{ACAD_REACTORS
330
C
102
}
330
C
100
AcDbXrecord
280
     1
 90
        1
330
6A
  0
DICTIONARY
  5
27B
102
{ACAD_REACTORS
330
C
102
}
330
C
100
AcDbDictionary
281
     1
  3
CANNOSCALE
350
27C
  3
CMLEADERSTYLE
350
281
  3
CTABLESTYLE
350
280
  3
SECTIONTHICKNESSINC
350
284
  0
LAYOUT
  5
1E
102
{ACAD_REACTORS
330
1A
102
}
330
1A
100
AcDbPlotSettings
  1

  2
none_device
  4

  6

 40
0.0
 41
0.0
 42
0.0
 43
0.0
 44
0.0
 45
0.0
 46
0.0
 47
0.0
 48
0.0
 49
0.0
140
0.0
141
0.0
142
1.0
143
1.0
 70
   688
 72
     1
 73
     0
 74
     5
  7

 75
    16
 76
     0
 77
     2
 78
   300
147
1.0
148
0.0
149
0.0
100
AcDbLayout
  1
Layout1
 70
     1
 71
     1
 10
0.0
 20
0.0
 11
420.0
 21
297.0
 12
0.0
 22
0.0
 32
0.0
 14
1.0000000000E+20
 24
1.0000000000E+20
 34
1.0000000000E+20
 15
-1.0000000000E+20
 25
-1.0000000000E+20
 35
-1.0000000000E+20
146
0.0
 13
0.0
 23
0.0
 33
0.0
 16
1.0
 26
0.0
 36
0.0
 17
0.0
 27
1.0
 37
0.0
 76
     0
330
1B
  0
LAYOUT
  5
26
102
{ACAD_REACTORS
330
1A
102
}
330
1A
100
AcDbPlotSettings
  1

  2
none_device
  4

  6

 40
0.0
 41
0.0
 42
0.0
 43
0.0
 44
0.0
 45
0.0
 46
0.0
 47
0.0
 48
0.0
 49
0.0
140
0.0
141
0.0
142
1.0
143
1.0
 70
   688
 72
     1
 73
     0
 74
     5
  7

 75
    16
 76
     0
 77
     2
 78
   300
147
1.0
148
0.0
149
0.0
100
AcDbLayout
  1
Layout2
 70
     1
 71
     2
 10
0.0
 20
0.0
 11
0.0
 21
0.0
 12
0.0
 22
0.0
 32
0.0
 14
0.0
 24
0.0
 34
0.0
 15
0.0
 25
0.0
 35
0.0
146
0.0
 13
0.0
 23
0.0
 33
0.0
 16
1.0
 26
0.0
 36
0.0
 17
0.0
 27
1.0
 37
0.0
 76
     0
330
23
  0
LAYOUT
  5
22
102
{ACAD_REACTORS
330
1A
102
}
330
1A
100
AcDbPlotSettings
  1

  2
none_device
  4
Letter_(8.50_x_11.00_Inches)
  6

 40
6.35
 41
6.35
 42
6.35000508
 43
6.35000508
 44
215.9
 45
279.4
 46
0.0
 47
0.0
 48
0.0
 49
0.0
140
0.0
141
0.0
142
1.0
143
1.0
 70
  1712
 72
     1
 73
     0
 74
     0
  7

 75
     0
 76
     0
 77
     2
 78
   300
147
1.0
148
0.0
149
0.0
100
AcDbLayout
  1
Model
 70
     1
 71
     0
 10
0.0
 20
0.0
 11
594.0
 21
420.0
 12
0.0
 22
0.0
 32
0.0
 14
0.0
 24
0.0
 34
0.0
 15
594.0
 25
420.0
 35
0.0
146
0.0
 13
0.0
 23
0.0
 33
0.0
 16
1.0
 26
0.0
 36
0.0
 17
0.0
 27
1.0
 37
0.0
 76
     0
330
1F
331
29
  0
MATERIAL
  5
45
102
{ACAD_REACTORS
330
43
102
}
330
43
100
AcDbMaterial
  1
ByBlock
 72
     1
 94
      127
  0
MATERIAL
  5
44
102
{ACAD_REACTORS
330
43
102
}
330
43
100
AcDbMaterial
  1
ByLayer
 72
     1
 94
      127
  0
MATERIAL
  5
46
102
{ACAD_REACTORS
330
43
102
}
330
43
100
AcDbMaterial
  1
Global
 72
     1
 94
      127
  0
MLEADERSTYLE
  5
6C
102
{ACAD_REACTORS
330
6B
102
}
330
6B
100
AcDbMLeaderStyle
179
     2
170
     2
171
     1
172
     0
 90
        2
 40
0.0
 41
0.0
173
     1
 91
-1056964608
340
14
 92
       -2
290
     1
 42
2.0
291
     1
 43
8.0
  3
Standard
341
0
 44
4.0
300

342
11
174
     1
178
     6
175
     1
176
     0
 93
-1056964608
 45
4.0
292
     0
297
     0
 46
4.0
343
0
 94
-1056964608
 47
1.0
 49
1.0
140
1.0
293
     1
141
0.0
294
     1
177
     0
142
1.0
295
     0
296
     0
143
3.75
271
     0
272
     9
273
     9
298
     0
  0
MLINESTYLE
  5
18
102
{ACAD_REACTORS
330
17
102
}
330
17
100
AcDbMlineStyle
  2
Standard
 70
     0
  3

 62
   256
 51
90.0
 52
90.0
 71
     2
 49
0.5
 62
   256
  6
BYLAYER
 49
-0.5
 62
   256
  6
BYLAYER
  0
ACDBPLACEHOLDER
  5
F
102
{ACAD_REACTORS
330
E
102
}
330
E
  0
SCALE
  5
48
102
{ACAD_REACTORS
330
47
102
}
330
47
100
AcDbScale
 70
     0
300
1:1
140
1.0
141
1.0
290
     1
  0
SCALE
  5
49
102
{ACAD_REACTORS
330
47
102
}
330
47
100
AcDbScale
 70
     0
300
1:2
140
1.0
141
2.0
290
     0
  0
SCALE
  5
4A
102
{ACAD_REACTORS
330
47
102
}
330
47
100
AcDbScale
 70
     0
300
1:4
140
1.0
141
4.0
290
     0
  0
SCALE
  5
4B
102
{ACAD_REACTORS
330
47
102
}
330
47
100
AcDbScale
 70
     0
300
1:5
140
1.0
141
5.0
290
     0
  0
SCALE
  5
4C
102
{ACAD_REACTORS
330
47
102
}
330
47
100
AcDbScale
 70
     0
300
1:8
140
1.0
141
8.0
290
     0
  0
SCALE
  5
4D
102
{ACAD_REACTORS
330
47
102
}
330
47
100
AcDbScale
 70
     0
300
1:10
140
1.0
141
10.0
290
     0
  0
SCALE
  5
4E
102
{ACAD_REACTORS
330
47
102
}
330
47
100
AcDbScale
 70
     0
300
1:16
140
1.0
141
16.0
290
     0
  0
SCALE
  5
4F
102
{ACAD_REACTORS
330
47
102
}
330
47
100
AcDbScale
 70
     0
300
1:20
140
1.0
141
20.0
290
     0
  0
SCALE
  5
50
102
{ACAD_REACTORS
330
47
102
}
330
47
100
AcDbScale
 70
     0
300
1:30
140
1.0
141
30.0
290
     0
  0
SCALE
  5
51
102
{ACAD_REACTORS
330
47
102
}
330
47
100
AcDbScale
 70
     0
300
1:40
140
1.0
141
40.0
290
     0
  0
SCALE
  5
52
102
{ACAD_REACTORS
330
47
102
}
330
47
100
AcDbScale
 70
     0
300
1:50
140
1.0
141
50.0
290
     0
  0
SCALE
  5
53
102
{ACAD_REACTORS
330
47
102
}
330
47
100
AcDbScale
 70
     0
300
1:100
140
1.0
141
100.0
290
     0
  0
SCALE
  5
54
102
{ACAD_REACTORS
330
47
102
}
330
47
100
AcDbScale
 70
     0
300
2:1
140
2.0
141
1.0
290
     0
  0
SCALE
  5
55
102
{ACAD_REACTORS
330
47
102
}
330
47
100
AcDbScale
 70
     0
300
4:1
140
4.0
141
1.0
290
     0
  0
SCALE
  5
56
102
{ACAD_REACTORS
330
47
102
}
330
47
100
AcDbScale
 70
     0
300
8:1
140
8.0
141
1.0
290
     0
  0
SCALE
  5
57
102
{ACAD_REACTORS
330
47
102
}
330
47
100
AcDbScale
 70
     0
300
10:1
140
10.0
141
1.0
290
     0
  0
SCALE
  5
58
102
{ACAD_REACTORS
330
47
102
}
330
47
100
AcDbScale
 70
     0
300
100:1
140
100.0
141
1.0
290
     0
  0
SCALE
  5
59
102
{ACAD_REACTORS
330
47
102
}
330
47
100
AcDbScale
 70
     0
300
1/128" = 1'-0"
140
0.0078125
141
12.0
290
     0
  0
SCALE
  5
5A
102
{ACAD_REACTORS
330
47
102
}
330
47
100
AcDbScale
 70
     0
300
1/64" = 1'-0"
140
0.015625
141
12.0
290
     0
  0
SCALE
  5
5B
102
{ACAD_REACTORS
330
47
102
}
330
47
100
AcDbScale
 70
     0
300
1/32" = 1'-0"
140
0.03125
141
12.0
290
     0
  0
SCALE
  5
5C
102
{ACAD_REACTORS
330
47
102
}
330
47
100
AcDbScale
 70
     0
300
1/16" = 1'-0"
140
0.0625
141
12.0
290
     0
  0
SCALE
  5
5D
102
{ACAD_REACTORS
330
47
102
}
330
47
100
AcDbScale
 70
     0
300
3/32" = 1'-0"
140
0.09375
141
12.0
290
     0
  0
SCALE
  5
5E
102
{ACAD_REACTORS
330
47
102
}
330
47
100
AcDbScale
 70
     0
300
1/8" = 1'-0"
140
0.125
141
12.0
290
     0
  0
SCALE
  5
5F
102
{ACAD_REACTORS
330
47
102
}
330
47
100
AcDbScale
 70
     0
300
3/16" = 1'-0"
140
0.1875
141
12.0
290
     0
  0
SCALE
  5
60
102
{ACAD_REACTORS
330
47
102
}
330
47
100
AcDbScale
 70
     0
300
1/4" = 1'-0"
140
0.25
141
12.0
290
     0
  0
SCALE
  5
61
102
{ACAD_REACTORS
330
47
102
}
330
47
100
AcDbScale
 70
     0
300
3/8" = 1'-0"
140
0.375
141
12.0
290
     0
  0
SCALE
  5
62
102
{ACAD_REACTORS
330
47
102
}
330
47
100
AcDbScale
 70
     0
300
1/2" = 1'-0"
140
0.5
141
12.0
290
     0
  0
SCALE
  5
63
102
{ACAD_REACTORS
330
47
102
}
330
47
100
AcDbScale
 70
     0
300
3/4" = 1'-0"
140
0.75
141
12.0
290
     0
  0
SCALE
  5
64
102
{ACAD_REACTORS
330
47
102
}
330
47
100
AcDbScale
 70
     0
300
1" = 1'-0"
140
1.0
141
12.0
290
     0
  0
SCALE
  5
65
102
{ACAD_REACTORS
330
47
102
}
330
47
100
AcDbScale
 70
     0
300
1-1/2" = 1'-0"
140
1.5
141
12.0
290
     0
  0
SCALE
  5
66
102
{ACAD_REACTORS
330
47
102
}
330
47
100
AcDbScale
 70
     0
300
3" = 1'-0"
140
3.0
141
12.0
290
     0
  0
SCALE
  5
67
102
{ACAD_REACTORS
330
47
102
}
330
47
100
AcDbScale
 70
     0
300
6" = 1'-0"
140
6.0
141
12.0
290
     0
  0
SCALE
  5
68
102
{ACAD_REACTORS
330
47
102
}
330
47
100
AcDbScale
 70
     0
300
1'-0" = 1'-0"
140
12.0
141
12.0
290
     0
  0
TABLESTYLE
  5
6A
102
{ACAD_REACTORS
330
69
102
}
102
{ACAD_XDICTIONARY
360
27D
102
}
330
69
100
AcDbTableStyle
  3
Standard
 70
     0
 71
     0
 40
0.06
 41
0.06
280
     0
281
     0
  7
Standard
140
4.5
170
     2
 62
     0
 63
   257
283
     0
 90
        4
 91
        0
  1

274
    -2
284
     1
 64
     0
275
    -2
285
     1
 65
     0
276
    -2
286
     1
 66
     0
277
    -2
287
     1
 67
     0
278
    -2
288
     1
 68
     0
279
    -2
289
     1
 69
     0
  7
Standard
140
6.0
170
     5
 62
     0
 63
   257
283
     0
 90
        4
 91
        0
  1

274
    -2
284
     1
 64
     0
275
    -2
285
     1
 65
     0
276
    -2
286
     1
 66
     0
277
    -2
287
     1
 67
     0
278
    -2
288
     1
 68
     0
279
    -2
289
     1
 69
     0
  7
Standard
140
4.5
170
     5
 62
     0
 63
   257
283
     0
 90
        4
 91
        0
  1

274
    -2
284
     1
 64
     0
275
    -2
285
     1
 65
     0
276
    -2
286
     1
 66
     0
277
    -2
287
     1
 67
     0
278
    -2
288
     1
 68
     0
279
    -2
289
     1
 69
     0
  0
VISUALSTYLE
  5
2F
102
{ACAD_REACTORS
330
2A
102
}
330
2A
100
AcDbVisualStyle
  2
2dWireframe
 70
     4
177
     3
291
     0
 70
    58
 90
        0
176
     1
 90
        2
176
     1
 90
        0
176
     1
 90
        0
176
     1
 40
0.6
176
     1
 40
30.0
176
     1
 62
     7
420
 16777215
176
     1
 90
        1
176
     1
 90
        4
176
     1
 62
     7
176
     1
 62
   257
176
     1
 90
        1
176
     1
 90
        1
176
     1
 40
1.0
176
     1
 90
        0
176
     1
 62
   257
176
     1
 40
1.0
176
     1
 90
        1
176
     1
 90
        6
176
     1
 90
        2
176
     1
 62
     7
176
     1
 90
        5
176
     1
 90
        0
176
     1
 90
        0
176
     1
290
     0
176
     1
 90
        1
176
     1
 40
0.0
176
     1
 90
        0
176
     1
290
     1
176
     1
290
     1
176
     1
290
     0
176
     1
290
     0
176
     1
290
     0
176
     1
290
     0
176
     1
290
     0
176
     1
290
     0
176
     1
290
     0
176
     1
 90
       50
176
     1
 40
0.0
176
     1
 40
1.0
176
     1
 90
        0
176
     1
 62
    18
420
        0
176
     1
 90
       50
176
     1
 90
        3
176
     1
 62
     5
420
      255
176
     1
290
     0
176
     1
 90
       50
176
     1
 90
       50
176
     1
 90
       50
176
     1
290
     0
176
     1
 90
       50
176
     1
 62
   256
176
     0
 40
1.0
176
     0
 90
        2
176
     1
  1
strokes_ogs.tif
176
     1
290
     0
176
     1
 40
1.0
176
     1
 40
1.0
176
     1
  0
VISUALSTYLE
  5
32
102
{ACAD_REACTORS
330
2A
102
}
330
2A
100
AcDbVisualStyle
  2
Basic
 70
     7
177
     3
291
     1
 70
    58
 90
        1
176
     1
 90
        0
176
     1
 90
        1
176
     1
 90
        0
176
     1
 40
0.6
176
     1
 40
30.0
176
     1
 62
     7
420
 16777215
176
     1
 90
        0
176
     1
 90
        4
176
     1
 62
     7
176
     1
 62
   257
176
     1
 90
        1
176
     1
 90
        1
176
     1
 40
1.0
176
     1
 90
        8
176
     1
 62
     7
176
     1
 40
1.0
176
     1
 90
        1
176
     1
 90
        6
176
     1
 90
        2
176
     1
 62
     7
176
     1
 90
        5
176
     1
 90
        0
176
     1
 90
        0
176
     1
290
     0
176
     1
 90
        1
176
     1
 40
0.0
176
     1
 90
        0
176
     1
290
     0
176
     1
290
     1
176
     1
290
     1
176
     1
290
     0
176
     1
290
     0
176
     1
290
     0
176
     1
290
     0
176
     1
290
     0
176
     1
290
     0
176
     1
 90
       50
176
     1
 40
0.0
176
     1
 40
1.0
176
     1
 90
        0
176
     1
 62
    18
420
        0
176
     1
 90
       50
176
     1
 90
        3
176
     1
 62
     5
420
      255
176
     1
290
     0
176
     1
 90
       50
176
     1
 90
       50
176
     1
 90
       50
176
     1
290
     0
176
     1
 90
       50
176
     1
 62
   256
176
     0
 40
1.0
176
     0
 90
        2
176
     1
  1
strokes_ogs.tif
176
     1
290
     0
176
     1
 40
1.0
176
     1
 40
1.0
176
     1
  0
VISUALSTYLE
  5
36
102
{ACAD_REACTORS
330
2A
102
}
330
2A
100
AcDbVisualStyle
  2
Brighten
 70
    12
177
     3
291
     1
 70
    58
 90
        2
176
     1
 90
        2
176
     1
 90
        0
176
     1
 90
        0
176
     1
 40
0.6
176
     1
 40
30.0
176
     1
 62
     7
420
 16777215
176
     1
 90
        1
176
     1
 90
        4
176
     1
 62
     7
176
     1
 62
   257
176
     1
 90
        1
176
     1
 90
        1
176
     1
 40
1.0
176
     1
 90
        8
176
     1
 62
     7
176
     1
 40
1.0
176
     1
 90
        1
176
     1
 90
        6
176
     1
 90
        2
176
     1
 62
     7
176
     1
 90
        5
176
     1
 90
        0
176
     1
 90
        0
176
     1
290
     0
176
     1
 90
        1
176
     1
 40
50.0
176
     1
 90
        0
176
     1
290
     0
176
     1
290
     1
176
     1
290
     1
176
     1
290
     0
176
     1
290
     0
176
     1
290
     0
176
     1
290
     0
176
     1
290
     0
176
     1
290
     0
176
     1
 90
       50
176
     1
 40
0.0
176
     1
 40
1.0
176
     1
 90
        0
176
     1
 62
    18
420
        0
176
     1
 90
       50
176
     1
 90
        3
176
     1
 62
     5
420
      255
176
     1
290
     0
176
     1
 90
       50
176
     1
 90
       50
176
     1
 90
       50
176
     1
290
     0
176
     1
 90
       50
176
     1
 62
   256
176
     0
 40
1.0
176
     0
 90
        2
176
     1
  1
strokes_ogs.tif
176
     1
290
     0
176
     1
 40
1.0
176
     1
 40
1.0
176
     1
  0
VISUALSTYLE
  5
3A
102
{ACAD_REACTORS
330
2A
102
}
330
2A
100
AcDbVisualStyle
  2
ColorChange
 70
    16
177
     3
291
     1
 70
    58
 90
        2
176
     1
 90
        2
176
     1
 90
        3
176
     1
 90
        0
176
     1
 40
0.6
176
     1
 40
30.0
176
     1
 62
     8
420
  8421504
176
     1
 90
        1
176
     1
 90
        4
176
     1
 62
     7
176
     1
 62
   257
176
     1
 90
        1
176
     1
 90
        1
176
     1
 40
1.0
176
     1
 90
        8
176
     1
 62
     8
420
  8421504
176
     1
 40
1.0
176
     1
 90
        1
176
     1
 90
        6
176
     1
 90
        2
176
     1
 62
     7
176
     1
 90
        5
176
     1
 90
        0
176
     1
 90
        0
176
     1
290
     0
176
     1
 90
        1
176
     1
 40
0.0
176
     1
 90
        0
176
     1
290
     0
176
     1
290
     1
176
     1
290
     1
176
     1
290
     0
176
     1
290
     0
176
     1
290
     0
176
     1
290
     0
176
     1
290
     0
176
     1
290
     0
176
     1
 90
       50
176
     1
 40
0.0
176
     1
 40
1.0
176
     1
 90
        0
176
     1
 62
    18
420
        0
176
     1
 90
       50
176
     1
 90
        3
176
     1
 62
     5
420
      255
176
     1
290
     0
176
     1
 90
       50
176
     1
 90
       50
176
     1
 90
       50
176
     1
290
     0
176
     1
 90
       50
176
     1
 62
   256
176
     0
 40
1.0
176
     0
 90
        2
176
     1
  1
strokes_ogs.tif
176
     1
290
     0
176
     1
 40
1.0
176
     1
 40
1.0
176
     1
  0
VISUALSTYLE
  5
34
102
{ACAD_REACTORS
330
2A
102
}
330
2A
100
AcDbVisualStyle
  2
Conceptual
 70
     9
177
     3
291
     0
 70
    58
 90
        3
176
     1
 90
        2
176
     1
 90
        0
176
     1
 90
        0
176
     1
 40
0.6
176
     1
 40
30.0
176
     1
 62
     7
420
 16777215
176
     1
 90
        2
176
     1
 90
        2
176
     1
 62
     7
176
     1
 62
   257
176
     1
 90
        1
176
     1
 90
        1
176
     1
 40
179.0
176
     1
 90
        8
176
     1
 62
     7
176
     1
 40
1.0
176
     1
 90
        1
176
     1
 90
        6
176
     1
 90
        2
176
     1
 62
     7
176
     1
 90
        3
176
     1
 90
        0
176
     1
 90
        0
176
     1
290
     0
176
     1
 90
        1
176
     1
 40
0.0
176
     1
 90
        0
176
     1
290
     0
176
     1
290
     1
176
     1
290
     1
176
     1
290
     0
176
     1
290
     0
176
     1
290
     0
176
     1
290
     0
176
     1
290
     0
176
     1
290
     0
176
     1
 90
       50
176
     1
 40
0.0
176
     1
 40
1.0
176
     1
 90
        0
176
     1
 62
    18
420
        0
176
     1
 90
       50
176
     1
 90
        3
176
     1
 62
     5
420
      255
176
     1
290
     0
176
     1
 90
       50
176
     1
 90
       50
176
     1
 90
       50
176
     1
290
     0
176
     1
 90
       50
176
     1
 62
   256
176
     0
 40
1.0
176
     0
 90
        2
176
     1
  1
strokes_ogs.tif
176
     1
290
     0
176
     1
 40
1.0
176
     1
 40
1.0
176
     1
  0
VISUALSTYLE
  5
35
102
{ACAD_REACTORS
330
2A
102
}
330
2A
100
AcDbVisualStyle
  2
Dim
 70
    11
177
     3
291
     1
 70
    58
 90
        2
176
     1
 90
        2
176
     1
 90
        0
176
     1
 90
        0
176
     1
 40
0.6
176
     1
 40
30.0
176
     1
 62
     7
420
 16777215
176
     1
 90
        1
176
     1
 90
        4
176
     1
 62
     7
176
     1
 62
   257
176
     1
 90
        1
176
     1
 90
        1
176
     1
 40
1.0
176
     1
 90
        8
176
     1
 62
     7
176
     1
 40
1.0
176
     1
 90
        1
176
     1
 90
        6
176
     1
 90
        2
176
     1
 62
     7
176
     1
 90
        5
176
     1
 90
        0
176
     1
 90
        0
176
     1
290
     0
176
     1
 90
        1
176
     1
 40
-50.0
176
     1
 90
        0
176
     1
290
     0
176
     1
290
     1
176
     1
290
     1
176
     1
290
     0
176
     1
290
     0
176
     1
290
     0
176
     1
290
     0
176
     1
290
     0
176
     1
290
     0
176
     1
 90
       50
176
     1
 40
0.0
176
     1
 40
1.0
176
     1
 90
        0
176
     1
 62
    18
420
        0
176
     1
 90
       50
176
     1
 90
        3
176
     1
 62
     5
420
      255
176
     1
290
     0
176
     1
 90
       50
176
     1
 90
       50
176
     1
 90
       50
176
     1
290
     0
176
     1
 90
       50
176
     1
 62
   256
176
     0
 40
1.0
176
     0
 90
        2
176
     1
  1
strokes_ogs.tif
176
     1
290
     0
176
     1
 40
1.0
176
     1
 40
1.0
176
     1
  0
VISUALSTYLE
  5
3D
102
{ACAD_REACTORS
330
2A
102
}
330
2A
100
AcDbVisualStyle
  2
EdgeColorOff
 70
    22
177
     3
291
     1
 70
    58
 90
        2
176
     0
 90
        2
176
     0
 90
        0
176
     0
 90
        0
176
     0
 40
0.6
176
     0
 40
30.0
176
     0
 62
     7
420
 16777215
176
     0
 90
        1
176
     0
 90
        4
176
     0
 62
     7
176
     0
 62
   257
176
     0
 90
        1
176
     0
 90
        1
176
     0
 40
1.0
176
     0
 90
        8
176
     2
 62
     7
176
     0
 40
1.0
176
     0
 90
        1
176
     0
 90
        6
176
     0
 90
        2
176
     0
 62
     7
176
     0
 90
        5
176
     0
 90
        0
176
     0
 90
        0
176
     0
290
     0
176
     0
 90
        1
176
     0
 40
0.0
176
     0
 90
        0
176
     0
290
     0
176
     0
290
     1
176
     0
290
     1
176
     0
290
     0
176
     0
290
     0
176
     0
290
     0
176
     0
290
     0
176
     0
290
     0
176
     0
290
     0
176
     0
 90
       50
176
     0
 40
0.0
176
     0
 40
1.0
176
     0
 90
        0
176
     0
 62
    18
420
        0
176
     0
 90
       50
176
     0
 90
        3
176
     0
 62
     5
420
      255
176
     0
290
     0
176
     0
 90
       50
176
     0
 90
       50
176
     0
 90
       50
176
     0
290
     0
176
     0
 90
       50
176
     0
 62
   256
176
     0
 40
1.0
176
     0
 90
        2
176
     0
  1
strokes_ogs.tif
176
     0
290
     0
176
     0
 40
1.0
176
     0
 40
1.0
176
     0
  0
VISUALSTYLE
  5
39
102
{ACAD_REACTORS
330
2A
102
}
330
2A
100
AcDbVisualStyle
  2
Facepattern
 70
    15
177
     3
291
     1
 70
    58
 90
        2
176
     1
 90
        2
176
     1
 90
        0
176
     1
 90
        0
176
     1
 40
0.6
176
     1
 40
30.0
176
     1
 62
     7
420
 16777215
176
     1
 90
        1
176
     1
 90
        4
176
     1
 62
     7
176
     1
 62
   257
176
     1
 90
        1
176
     1
 90
        1
176
     1
 40
1.0
176
     1
 90
        8
176
     1
 62
     7
176
     1
 40
1.0
176
     1
 90
        1
176
     1
 90
        6
176
     1
 90
        2
176
     1
 62
     7
176
     1
 90
        5
176
     1
 90
        0
176
     1
 90
        0
176
     1
290
     0
176
     1
 90
        1
176
     1
 40
0.0
176
     1
 90
        0
176
     1
290
     0
176
     1
290
     1
176
     1
290
     1
176
     1
290
     0
176
     1
290
     0
176
     1
290
     0
176
     1
290
     0
176
     1
290
     0
176
     1
290
     0
176
     1
 90
       50
176
     1
 40
0.0
176
     1
 40
1.0
176
     1
 90
        0
176
     1
 62
    18
420
        0
176
     1
 90
       50
176
     1
 90
        3
176
     1
 62
     5
420
      255
176
     1
290
     0
176
     1
 90
       50
176
     1
 90
       50
176
     1
 90
       50
176
     1
290
     0
176
     1
 90
       50
176
     1
 62
   256
176
     0
 40
1.0
176
     0
 90
        2
176
     1
  1
strokes_ogs.tif
176
     1
290
     0
176
     1
 40
1.0
176
     1
 40
1.0
176
     1
  0
VISUALSTYLE
  5
2B
102
{ACAD_REACTORS
330
2A
102
}
330
2A
100
AcDbVisualStyle
  2
Flat
 70
     0
177
     3
291
     1
 70
    58
 90
        2
176
     1
 90
        1
176
     1
 90
        1
176
     1
 90
        2
176
     1
 40
0.6
176
     1
 40
30.0
176
     1
 62
     7
420
 16777215
176
     1
 90
        0
176
     1
 90
        0
176
     1
 62
     7
176
     1
 62
   257
176
     1
 90
        1
176
     1
 90
        1
176
     1
 40
1.0
176
     1
 90
        8
176
     1
 62
     7
176
     1
 40
1.0
176
     1
 90
        1
176
     1
 90
        6
176
     1
 90
        2
176
     1
 62
     7
176
     1
 90
        5
176
     1
 90
        0
176
     1
 90
        0
176
     1
290
     0
176
     1
 90
       13
176
     1
 40
0.0
176
     1
 90
        0
176
     1
290
     0
176
     1
290
     1
176
     1
290
     1
176
     1
290
     0
176
     1
290
     0
176
     1
290
     0
176
     1
290
     0
176
     1
290
     0
176
     1
290
     0
176
     1
 90
       50
176
     1
 40
0.0
176
     1
 40
1.0
176
     1
 90
        0
176
     1
 62
    18
420
        0
176
     1
 90
       50
176
     1
 90
        3
176
     1
 62
     5
420
      255
176
     1
290
     0
176
     1
 90
       50
176
     1
 90
       50
176
     1
 90
       50
176
     1
290
     0
176
     1
 90
       50
176
     1
 62
   256
176
     0
 40
1.0
176
     0
 90
        2
176
     1
  1
strokes_ogs.tif
176
     1
290
     0
176
     1
 40
1.0
176
     1
 40
1.0
176
     1
  0
VISUALSTYLE
  5
2C
102
{ACAD_REACTORS
330
2A
102
}
330
2A
100
AcDbVisualStyle
  2
FlatWithEdges
 70
     1
177
     3
291
     1
 70
    58
 90
        2
176
     1
 90
        1
176
     1
 90
        1
176
     1
 90
        2
176
     1
 40
0.6
176
     1
 40
30.0
176
     1
 62
     7
420
 16777215
176
     1
 90
        1
176
     1
 90
        0
176
     1
 62
     7
176
     1
 62
   257
176
     1
 90
        1
176
     1
 90
        1
176
     1
 40
1.0
176
     1
 90
        0
176
     1
 62
   257
176
     1
 40
1.0
176
     1
 90
        1
176
     1
 90
        6
176
     1
 90
        2
176
     1
 62
     7
176
     1
 90
        5
176
     1
 90
        0
176
     1
 90
        0
176
     1
290
     0
176
     1
 90
       13
176
     1
 40
0.0
176
     1
 90
        0
176
     1
290
     0
176
     1
290
     1
176
     1
290
     1
176
     1
290
     0
176
     1
290
     0
176
     1
290
     0
176
     1
290
     0
176
     1
290
     0
176
     1
290
     0
176
     1
 90
       50
176
     1
 40
0.0
176
     1
 40
1.0
176
     1
 90
        0
176
     1
 62
    18
420
        0
176
     1
 90
       50
176
     1
 90
        3
176
     1
 62
     5
420
      255
176
     1
290
     0
176
     1
 90
       50
176
     1
 90
       50
176
     1
 90
       50
176
     1
290
     0
176
     1
 90
       50
176
     1
 62
   256
176
     0
 40
1.0
176
     0
 90
        2
176
     1
  1
strokes_ogs.tif
176
     1
290
     0
176
     1
 40
1.0
176
     1
 40
1.0
176
     1
  0
VISUALSTYLE
  5
2D
102
{ACAD_REACTORS
330
2A
102
}
330
2A
100
AcDbVisualStyle
  2
Gouraud
 70
     2
177
     3
291
     1
 70
    58
 90
        2
176
     1
 90
        2
176
     1
 90
        1
176
     1
 90
        2
176
     1
 40
0.6
176
     1
 40
30.0
176
     1
 62
     7
420
 16777215
176
     1
 90
        0
176
     1
 90
        0
176
     1
 62
     7
176
     1
 62
   257
176
     1
 90
        1
176
     1
 90
        1
176
     1
 40
1.0
176
     1
 90
        0
176
     1
 62
     7
176
     1
 40
1.0
176
     1
 90
        1
176
     1
 90
        6
176
     1
 90
        2
176
     1
 62
     7
176
     1
 90
        5
176
     1
 90
        0
176
     1
 90
        0
176
     1
290
     0
176
     1
 90
       13
176
     1
 40
0.0
176
     1
 90
        0
176
     1
290
     0
176
     1
290
     1
176
     1
290
     1
176
     1
290
     0
176
     1
290
     0
176
     1
290
     0
176
     1
290
     0
176
     1
290
     0
176
     1
290
     0
176
     1
 90
       50
176
     1
 40
0.0
176
     1
 40
1.0
176
     1
 90
        0
176
     1
 62
    18
420
        0
176
     1
 90
       50
176
     1
 90
        3
176
     1
 62
     5
420
      255
176
     1
290
     0
176
     1
 90
       50
176
     1
 90
       50
176
     1
 90
       50
176
     1
290
     0
176
     1
 90
       50
176
     1
 62
   256
176
     0
 40
1.0
176
     0
 90
        2
176
     1
  1
strokes_ogs.tif
176
     1
290
     0
176
     1
 40
1.0
176
     1
 40
1.0
176
     1
  0
VISUALSTYLE
  5
2E
102
{ACAD_REACTORS
330
2A
102
}
330
2A
100
AcDbVisualStyle
  2
GouraudWithEdges
 70
     3
177
     3
291
     1
 70
    58
 90
        2
176
     1
 90
        2
176
     1
 90
        1
176
     1
 90
        2
176
     1
 40
0.6
176
     1
 40
30.0
176
     1
 62
     7
420
 16777215
176
     1
 90
        1
176
     1
 90
        0
176
     1
 62
     7
176
     1
 62
   257
176
     1
 90
        1
176
     1
 90
        1
176
     1
 40
1.0
176
     1
 90
        0
176
     1
 62
   257
176
     1
 40
1.0
176
     1
 90
        1
176
     1
 90
        6
176
     1
 90
        2
176
     1
 62
     7
176
     1
 90
        5
176
     1
 90
        0
176
     1
 90
        0
176
     1
290
     0
176
     1
 90
       13
176
     1
 40
0.0
176
     1
 90
        0
176
     1
290
     0
176
     1
290
     1
176
     1
290
     1
176
     1
290
     0
176
     1
290
     0
176
     1
290
     0
176
     1
290
     0
176
     1
290
     0
176
     1
290
     0
176
     1
 90
       50
176
     1
 40
0.0
176
     1
 40
1.0
176
     1
 90
        0
176
     1
 62
    18
420
        0
176
     1
 90
       50
176
     1
 90
        3
176
     1
 62
     5
420
      255
176
     1
290
     0
176
     1
 90
       50
176
     1
 90
       50
176
     1
 90
       50
176
     1
290
     0
176
     1
 90
       50
176
     1
 62
   256
176
     0
 40
1.0
176
     0
 90
        2
176
     1
  1
strokes_ogs.tif
176
     1
290
     0
176
     1
 40
1.0
176
     1
 40
1.0
176
     1
  0
VISUALSTYLE
  5
31
102
{ACAD_REACTORS
330
2A
102
}
330
2A
100
AcDbVisualStyle
  2
Hidden
 70
     6
177
     3
291
     0
 70
    58
 90
        1
176
     1
 90
        2
176
     1
 90
        2
176
     1
 90
        0
176
     1
 40
0.6
176
     1
 40
30.0
176
     1
 62
     7
420
 16777215
176
     1
 90
        2
176
     1
 90
        2
176
     1
 62
     7
176
     1
 62
   257
176
     1
 90
        2
176
     1
 90
        1
176
     1
 40
40.0
176
     1
 90
        0
176
     1
 62
   257
176
     1
 40
1.0
176
     1
 90
        1
176
     1
 90
        6
176
     1
 90
        2
176
     1
 62
     7
176
     1
 90
        3
176
     1
 90
        0
176
     1
 90
        0
176
     1
290
     0
176
     1
 90
        1
176
     1
 40
0.0
176
     1
 90
        0
176
     1
290
     0
176
     1
290
     1
176
     1
290
     1
176
     1
290
     0
176
     1
290
     0
176
     1
290
     0
176
     1
290
     0
176
     1
290
     0
176
     1
290
     0
176
     1
 90
       50
176
     1
 40
0.0
176
     1
 40
1.0
176
     1
 90
        0
176
     1
 62
    18
420
        0
176
     1
 90
       50
176
     1
 90
        3
176
     1
 62
     5
420
      255
176
     1
290
     0
176
     1
 90
       50
176
     1
 90
       50
176
     1
 90
       50
176
     1
290
     0
176
     1
 90
       50
176
     1
 62
   256
176
     0
 40
1.0
176
     0
 90
        2
176
     1
  1
strokes_ogs.tif
176
     1
290
     0
176
     1
 40
1.0
176
     1
 40
1.0
176
     1
  0
VISUALSTYLE
  5
3B
102
{ACAD_REACTORS
330
2A
102
}
330
2A
100
AcDbVisualStyle
  2
JitterOff
 70
    20
177
     3
291
     1
 70
    58
 90
        2
176
     0
 90
        2
176
     0
 90
        0
176
     0
 90
        0
176
     0
 40
0.6
176
     0
 40
30.0
176
     0
 62
     7
420
 16777215
176
     0
 90
        1
176
     0
 90
        4
176
     0
 62
     7
176
     0
 62
   257
176
     0
 90
        1
176
     0
 90
        1
176
     0
 40
1.0
176
     0
 90
       10
176
     2
 62
     7
176
     0
 40
1.0
176
     0
 90
        1
176
     0
 90
        6
176
     0
 90
        2
176
     0
 62
     7
176
     0
 90
        5
176
     0
 90
        0
176
     0
 90
        0
176
     0
290
     0
176
     0
 90
        1
176
     0
 40
0.0
176
     0
 90
        0
176
     0
290
     0
176
     0
290
     1
176
     0
290
     1
176
     0
290
     0
176
     0
290
     0
176
     0
290
     0
176
     0
290
     0
176
     0
290
     0
176
     0
290
     0
176
     0
 90
       50
176
     0
 40
0.0
176
     0
 40
1.0
176
     0
 90
        0
176
     0
 62
    18
420
        0
176
     0
 90
       50
176
     0
 90
        3
176
     0
 62
     5
420
      255
176
     0
290
     0
176
     0
 90
       50
176
     0
 90
       50
176
     0
 90
       50
176
     0
290
     0
176
     0
 90
       50
176
     0
 62
   256
176
     0
 40
1.0
176
     0
 90
        2
176
     0
  1
strokes_ogs.tif
176
     0
290
     0
176
     0
 40
1.0
176
     0
 40
1.0
176
     0
  0
VISUALSTYLE
  5
38
102
{ACAD_REACTORS
330
2A
102
}
330
2A
100
AcDbVisualStyle
  2
Linepattern
 70
    14
177
     3
291
     1
 70
    58
 90
        2
176
     1
 90
        2
176
     1
 90
        0
176
     1
 90
        0
176
     1
 40
0.6
176
     1
 40
30.0
176
     1
 62
     7
420
 16777215
176
     1
 90
        1
176
     1
 90
        4
176
     1
 62
     7
176
     1
 62
   257
176
     1
 90
        7
176
     1
 90
        7
176
     1
 40
1.0
176
     1
 90
        8
176
     1
 62
     7
176
     1
 40
1.0
176
     1
 90
        1
176
     1
 90
        6
176
     1
 90
        2
176
     1
 62
     7
176
     1
 90
        5
176
     1
 90
        0
176
     1
 90
        0
176
     1
290
     0
176
     1
 90
        1
176
     1
 40
0.0
176
     1
 90
        0
176
     1
290
     0
176
     1
290
     1
176
     1
290
     1
176
     1
290
     0
176
     1
290
     0
176
     1
290
     0
176
     1
290
     0
176
     1
290
     0
176
     1
290
     0
176
     1
 90
       50
176
     1
 40
0.0
176
     1
 40
1.0
176
     1
 90
        0
176
     1
 62
    18
420
        0
176
     1
 90
       50
176
     1
 90
        3
176
     1
 62
     5
420
      255
176
     1
290
     0
176
     1
 90
       50
176
     1
 90
       50
176
     1
 90
       50
176
     1
290
     0
176
     1
 90
       50
176
     1
 62
   256
176
     0
 40
1.0
176
     0
 90
        2
176
     1
  1
strokes_ogs.tif
176
     1
290
     0
176
     1
 40
1.0
176
     1
 40
1.0
176
     1
  0
VISUALSTYLE
  5
3C
102
{ACAD_REACTORS
330
2A
102
}
330
2A
100
AcDbVisualStyle
  2
OverhangOff
 70
    21
177
     3
291
     1
 70
    58
 90
        2
176
     0
 90
        2
176
     0
 90
        0
176
     0
 90
        0
176
     0
 40
0.6
176
     0
 40
30.0
176
     0
 62
     7
420
 16777215
176
     0
 90
        1
176
     0
 90
        4
176
     0
 62
     7
176
     0
 62
   257
176
     0
 90
        1
176
     0
 90
        1
176
     0
 40
1.0
176
     0
 90
        9
176
     2
 62
     7
176
     0
 40
1.0
176
     0
 90
        1
176
     0
 90
        6
176
     0
 90
        2
176
     0
 62
     7
176
     0
 90
        5
176
     0
 90
        0
176
     0
 90
        0
176
     0
290
     0
176
     0
 90
        1
176
     0
 40
0.0
176
     0
 90
        0
176
     0
290
     0
176
     0
290
     1
176
     0
290
     1
176
     0
290
     0
176
     0
290
     0
176
     0
290
     0
176
     0
290
     0
176
     0
290
     0
176
     0
290
     0
176
     0
 90
       50
176
     0
 40
0.0
176
     0
 40
1.0
176
     0
 90
        0
176
     0
 62
    18
420
        0
176
     0
 90
       50
176
     0
 90
        3
176
     0
 62
     5
420
      255
176
     0
290
     0
176
     0
 90
       50
176
     0
 90
       50
176
     0
 90
       50
176
     0
290
     0
176
     0
 90
       50
176
     0
 62
   256
176
     0
 40
1.0
176
     0
 90
        2
176
     0
  1
strokes_ogs.tif
176
     0
290
     0
176
     0
 40
1.0
176
     0
 40
1.0
176
     0
  0
VISUALSTYLE
  5
33
102
{ACAD_REACTORS
330
2A
102
}
330
2A
100
AcDbVisualStyle
  2
Realistic
 70
     8
177
     3
291
     0
 70
    58
 90
        2
176
     1
 90
        3
176
     1
 90
        0
176
     1
 90
        2
176
     1
 40
0.6
176
     1
 40
30.0
176
     1
 62
     7
420
 16777215
176
     1
 90
        0
176
     1
 90
        0
176
     1
 62
     7
176
     1
 62
   257
176
     1
 90
        1
176
     1
 90
        1
176
     1
 40
1.0
176
     1
 90
        8
176
     1
 62
   257
176
     1
 40
1.0
176
     1
 90
        1
176
     1
 90
        6
176
     1
 90
        2
176
     1
 62
     7
176
     1
 90
        3
176
     1
 90
        0
176
     1
 90
        0
176
     1
290
     0
176
     1
 90
       13
176
     1
 40
0.0
176
     1
 90
        0
176
     1
290
     0
176
     1
290
     1
176
     1
290
     1
176
     1
290
     0
176
     1
290
     0
176
     1
290
     0
176
     1
290
     0
176
     1
290
     0
176
     1
290
     0
176
     1
 90
       50
176
     1
 40
0.0
176
     1
 40
1.0
176
     1
 90
        0
176
     1
 62
    18
420
        0
176
     1
 90
       50
176
     1
 90
        3
176
     1
 62
     5
420
      255
176
     1
290
     0
176
     1
 90
       50
176
     1
 90
       50
176
     1
 90
       50
176
     1
290
     0
176
     1
 90
       50
176
     1
 62
   256
176
     0
 40
1.0
176
     0
 90
        2
176
     1
  1
strokes_ogs.tif
176
     1
290
     0
176
     1
 40
1.0
176
     1
 40
1.0
176
     1
  0
VISUALSTYLE
  5
42
102
{ACAD_REACTORS
330
2A
102
}
330
2A
100
AcDbVisualStyle
  2
Shaded
 70
    27
177
     3
291
     0
 70
    58
 90
        2
176
     1
 90
        2
176
     1
 90
        1
176
     1
 90
        2
176
     1
 40
0.6
176
     1
 40
30.0
176
     1
 62
     7
420
 16777215
176
     1
 90
        0
176
     1
 90
        4
176
     1
 62
     7
176
     1
 62
   257
176
     1
 90
        1
176
     1
 90
        1
176
     1
 40
1.0
176
     1
 90
        8
176
     1
 62
   257
176
     1
 40
1.0
176
     1
 90
        1
176
     1
 90
        6
176
     1
 90
        2
176
     1
 62
     8
420
  7895160
176
     1
 90
        3
176
     1
 90
        0
176
     1
 90
        0
176
     1
290
     0
176
     1
 90
        5
176
     1
 40
0.0
176
     1
 90
        0
176
     1
290
     0
176
     1
290
     1
176
     1
290
     1
176
     1
290
     0
176
     1
290
     0
176
     1
290
     0
176
     1
290
     0
176
     1
290
     0
176
     1
290
     0
176
     1
 90
       50
176
     1
 40
0.0
176
     1
 40
1.0
176
     1
 90
        0
176
     1
 62
    18
420
        0
176
     1
 90
       50
176
     1
 90
        3
176
     1
 62
     5
420
      255
176
     1
290
     0
176
     1
 90
       50
176
     1
 90
       50
176
     1
 90
       50
176
     1
290
     0
176
     1
 90
       50
176
     1
 62
   256
176
     0
 40
1.0
176
     0
 90
        2
176
     1
  1
strokes_ogs.tif
176
     1
290
     0
176
     1
 40
1.0
176
     1
 40
1.0
176
     1
  0
VISUALSTYLE
  5
41
102
{ACAD_REACTORS
330
2A
102
}
330
2A
100
AcDbVisualStyle
  2
Shaded with edges
 70
    26
177
     3
291
     0
 70
    58
 90
        2
176
     1
 90
        2
176
     1
 90
        1
176
     1
 90
        2
176
     1
 40
0.6
176
     1
 40
30.0
176
     1
 62
     7
420
 16777215
176
     1
 90
        1
176
     1
 90
       10
176
     1
 62
     7
176
     1
 62
   257
176
     1
 90
        2
176
     1
 90
        1
176
     1
 40
1.0
176
     1
 90
        8
176
     1
 62
   257
176
     1
 40
1.0
176
     1
 90
        1
176
     1
 90
        6
176
     1
 90
        2
176
     1
 62
     7
176
     1
 90
        3
176
     1
 90
        0
176
     1
 90
        0
176
     1
290
     0
176
     1
 90
        5
176
     1
 40
0.0
176
     1
 90
        0
176
     1
290
     0
176
     1
290
     1
176
     1
290
     1
176
     1
290
     0
176
     1
290
     0
176
     1
290
     0
176
     1
290
     0
176
     1
290
     0
176
     1
290
     0
176
     1
 90
       50
176
     1
 40
0.0
176
     1
 40
1.0
176
     1
 90
        0
176
     1
 62
    18
420
        0
176
     1
 90
       50
176
     1
 90
        3
176
     1
 62
     5
420
      255
176
     1
290
     0
176
     1
 90
       50
176
     1
 90
       50
176
     1
 90
       50
176
     1
290
     0
176
     1
 90
       50
176
     1
 62
   256
176
     0
 40
1.0
176
     0
 90
        2
176
     1
  1
strokes_ogs.tif
176
     1
290
     0
176
     1
 40
1.0
176
     1
 40
1.0
176
     1
  0
VISUALSTYLE
  5
3E
102
{ACAD_REACTORS
330
2A
102
}
330
2A
100
AcDbVisualStyle
  2
Shades of Gray
 70
    23
177
     3
291
     0
 70
    58
 90
        2
176
     1
 90
        2
176
     1
 90
        3
176
     1
 90
        0
176
     1
 40
0.6
176
     1
 40
30.0
176
     1
 62
     7
420
 16777215
176
     1
 90
        2
176
     1
 90
        2
176
     1
 62
     7
176
     1
 62
     7
176
     1
 90
        1
176
     1
 90
        1
176
     1
 40
40.0
176
     1
 90
        8
176
     1
 62
     7
176
     1
 40
1.0
176
     1
 90
        1
176
     1
 90
        6
176
     1
 90
        2
176
     1
 62
     7
176
     1
 90
        3
176
     1
 90
        0
176
     1
 90
        0
176
     1
290
     0
176
     1
 90
        1
176
     1
 40
0.0
176
     1
 90
        0
176
     1
290
     0
176
     1
290
     1
176
     1
290
     1
176
     1
290
     0
176
     1
290
     0
176
     1
290
     0
176
     1
290
     0
176
     1
290
     0
176
     1
290
     0
176
     1
 90
       50
176
     1
 40
0.0
176
     1
 40
1.0
176
     1
 90
        0
176
     1
 62
    18
420
        0
176
     1
 90
       50
176
     1
 90
        3
176
     1
 62
     5
420
      255
176
     1
290
     0
176
     1
 90
       50
176
     1
 90
       50
176
     1
 90
       50
176
     1
290
     0
176
     1
 90
       50
176
     1
 62
   256
176
     0
 40
1.0
176
     0
 90
        2
176
     1
  1
strokes_ogs.tif
176
     1
290
     0
176
     1
 40
1.0
176
     1
 40
1.0
176
     1
  0
VISUALSTYLE
  5
3F
102
{ACAD_REACTORS
330
2A
102
}
330
2A
100
AcDbVisualStyle
  2
Sketchy
 70
    24
177
     3
291
     0
 70
    58
 90
        1
176
     1
 90
        2
176
     1
 90
        2
176
     1
 90
        0
176
     1
 40
0.6
176
     1
 40
30.0
176
     1
 62
     7
420
 16777215
176
     1
 90
        2
176
     1
 90
        2
176
     1
 62
     7
176
     1
 62
     7
176
     1
 90
        1
176
     1
 90
        1
176
     1
 40
40.0
176
     1
 90
       11
176
     1
 62
     7
176
     1
 40
1.0
176
     1
 90
        1
176
     1
 90
        6
176
     1
 90
        2
176
     1
 62
     7
176
     1
 90
        6
176
     1
 90
        0
176
     1
 90
        0
176
     1
290
     0
176
     1
 90
        1
176
     1
 40
0.0
176
     1
 90
        0
176
     1
290
     0
176
     1
290
     1
176
     1
290
     1
176
     1
290
     0
176
     1
290
     0
176
     1
290
     0
176
     1
290
     0
176
     1
290
     0
176
     1
290
     0
176
     1
 90
       50
176
     1
 40
0.0
176
     1
 40
1.0
176
     1
 90
        0
176
     1
 62
    18
420
        0
176
     1
 90
       50
176
     1
 90
        3
176
     1
 62
     5
420
      255
176
     1
290
     0
176
     1
 90
       50
176
     1
 90
       50
176
     1
 90
       50
176
     1
290
     0
176
     1
 90
       50
176
     1
 62
   256
176
     0
 40
1.0
176
     0
 90
        2
176
     1
  1
strokes_ogs.tif
176
     1
290
     0
176
     1
 40
1.0
176
     1
 40
1.0
176
     1
  0
VISUALSTYLE
  5
37
102
{ACAD_REACTORS
330
2A
102
}
330
2A
100
AcDbVisualStyle
  2
Thicken
 70
    13
177
     3
291
     1
 70
    58
 90
        2
176
     1
 90
        2
176
     1
 90
        0
176
     1
 90
        0
176
     1
 40
0.6
176
     1
 40
30.0
176
     1
 62
     7
420
 16777215
176
     1
 90
        1
176
     1
 90
        4
176
     1
 62
     7
176
     1
 62
   257
176
     1
 90
        1
176
     1
 90
        1
176
     1
 40
1.0
176
     1
 90
       12
176
     1
 62
     7
176
     1
 40
1.0
176
     1
 90
        1
176
     1
 90
        6
176
     1
 90
        2
176
     1
 62
     7
176
     1
 90
        5
176
     1
 90
        0
176
     1
 90
        0
176
     1
290
     0
176
     1
 90
        1
176
     1
 40
0.0
176
     1
 90
        0
176
     1
290
     0
176
     1
290
     1
176
     1
290
     1
176
     1
290
     0
176
     1
290
     0
176
     1
290
     0
176
     1
290
     0
176
     1
290
     0
176
     1
290
     0
176
     1
 90
       50
176
     1
 40
0.0
176
     1
 40
1.0
176
     1
 90
        0
176
     1
 62
    18
420
        0
176
     1
 90
       50
176
     1
 90
        3
176
     1
 62
     5
420
      255
176
     1
290
     0
176
     1
 90
       50
176
     1
 90
       50
176
     1
 90
       50
176
     1
290
     0
176
     1
 90
       50
176
     1
 62
   256
176
     0
 40
1.0
176
     0
 90
        2
176
     1
  1
strokes_ogs.tif
176
     1
290
     0
176
     1
 40
1.0
176
     1
 40
1.0
176
     1
  0
VISUALSTYLE
  5
30
102
{ACAD_REACTORS
330
2A
102
}
330
2A
100
AcDbVisualStyle
  2
Wireframe
 70
     5
177
     3
291
     0
 70
    58
 90
        0
176
     1
 90
        2
176
     1
 90
        0
176
     1
 90
        0
176
     1
 40
0.6
176
     1
 40
30.0
176
     1
 62
     7
420
 16777215
176
     1
 90
        1
176
     1
 90
        4
176
     1
 62
     7
176
     1
 62
   257
176
     1
 90
        1
176
     1
 90
        1
176
     1
 40
1.0
176
     1
 90
        0
176
     1
 62
   257
176
     1
 40
1.0
176
     1
 90
        1
176
     1
 90
        6
176
     1
 90
        2
176
     1
 62
     7
176
     1
 90
        3
176
     1
 90
        0
176
     1
 90
        0
176
     1
290
     0
176
     1
 90
        1
176
     1
 40
0.0
176
     1
 90
        0
176
     1
290
     0
176
     1
290
     1
176
     1
290
     1
176
     1
290
     0
176
     1
290
     0
176
     1
290
     0
176
     1
290
     0
176
     1
290
     0
176
     1
290
     0
176
     1
 90
       50
176
     1
 40
0.0
176
     1
 40
1.0
176
     1
 90
        0
176
     1
 62
    18
420
        0
176
     1
 90
       50
176
     1
 90
        3
176
     1
 62
     5
420
      255
176
     1
290
     0
176
     1
 90
       50
176
     1
 90
       50
176
     1
 90
       50
176
     1
290
     0
176
     1
 90
       50
176
     1
 62
   256
176
     0
 40
1.0
176
     0
 90
        2
176
     1
  1
strokes_ogs.tif
176
     1
290
     0
176
     1
 40
1.0
176
     1
 40
1.0
176
     1
  0
VISUALSTYLE
  5
40
102
{ACAD_REACTORS
330
2A
102
}
330
2A
100
AcDbVisualStyle
  2
X-Ray
 70
    25
177
     3
291
     0
 70
    58
 90
        2
176
     1
 90
        2
176
     1
 90
        1
176
     1
 90
        1
176
     1
 40
0.5
176
     1
 40
30.0
176
     1
 62
     7
420
 16777215
176
     1
 90
        1
176
     1
 90
        0
176
     1
 62
     7
176
     1
 62
   257
176
     1
 90
        1
176
     1
 90
        1
176
     1
 40
1.0
176
     1
 90
        8
176
     1
 62
     7
176
     1
 40
1.0
176
     1
 90
        1
176
     1
 90
        6
176
     1
 90
        2
176
     1
 62
     7
176
     1
 90
        3
176
     1
 90
        0
176
     1
 90
        0
176
     1
290
     0
176
     1
 90
       13
176
     1
 40
0.0
176
     1
 90
        0
176
     1
290
     0
176
     1
290
     1
176
     1
290
     1
176
     1
290
     0
176
     1
290
     0
176
     1
290
     0
176
     1
290
     0
176
     1
290
     0
176
     1
290
     0
176
     1
 90
       50
176
     1
 40
0.0
176
     1
 40
1.0
176
     1
 90
        0
176
     1
 62
    18
420
        0
176
     1
 90
       50
176
     1
 90
        3
176
     1
 62
     5
420
      255
176
     1
290
     0
176
     1
 90
       50
176
     1
 90
       50
176
     1
 90
       50
176
     1
290
     0
176
     1
 90
       50
176
     1
 62
   256
176
     0
 40
1.0
176
     0
 90
        2
176
     1
  1
strokes_ogs.tif
176
     1
290
     0
176
     1
 40
1.0
176
     1
 40
1.0
176
     1
  0
DICTIONARYVAR
  5
27C
102
{ACAD_REACTORS
330
27B
102
}
330
27B
100
DictionaryVariables
280
     0
  1
1:1
  0
DICTIONARYVAR
  5
281
102
{ACAD_REACTORS
330
27B
102
}
330
27B
100
DictionaryVariables
280
     0
  1
Standard
  0
DICTIONARYVAR
  5
280
102
{ACAD_REACTORS
330
27B
102
}
330
27B
100
DictionaryVariables
280
     0
  1
Standard
  0
DICTIONARYVAR
  5
284
102
{ACAD_REACTORS
330
27B
102
}
330
27B
100
DictionaryVariables
280
     0
  1
6.000000
  0
DICTIONARY
  5
27D
330
6A
100
AcDbDictionary
280
     1
281
     1
  3
ACAD_ROUNDTRIP_2008_TABLESTYLE_CELLSTYLEMAP
360
27E
  0
CELLSTYLEMAP
  5
27E
102
{ACAD_REACTORS
330
27D
102
}
330
27D
100
AcDbCellStyleMap
 90
        3
300
CELLSTYLE
  1
TABLEFORMAT_BEGIN
 90
        5
170
     1
 91
        0
 92
    32768
 62
   257
 93
        1
300
CONTENTFORMAT
  1
CONTENTFORMAT_BEGIN
 90
        0
 91
        0
 92
        4
 93
        0
300

 40
0.0
140
1.0
 94
        5
 62
     0
340
11
144
6.0
309
CONTENTFORMAT_END
171
     1
301
MARGIN
  1
CELLMARGIN_BEGIN
 40
1.5
 40
1.5
 40
1.5
 40
1.5
 40
1.5
 40
1.5
309
CELLMARGIN_END
 94
        6
 95
        1
302
GRIDFORMAT
  1
GRIDFORMAT_BEGIN
 90
        0
 91
        1
 62
     0
 92
       -2
340
14
 93
        0
 40
0.045
309
GRIDFORMAT_END
 95
        2
302
GRIDFORMAT
  1
GRIDFORMAT_BEGIN
 90
        0
 91
        1
 62
     0
 92
       -2
340
14
 93
        0
 40
0.045
309
GRIDFORMAT_END
 95
        4
302
GRIDFORMAT
  1
GRIDFORMAT_BEGIN
 90
        0
 91
        1
 62
     0
 92
       -2
340
14
 93
        0
 40
0.045
309
GRIDFORMAT_END
 95
        8
302
GRIDFORMAT
  1
GRIDFORMAT_BEGIN
 90
        0
 91
        1
 62
     0
 92
       -2
340
14
 93
        0
 40
0.045
309
GRIDFORMAT_END
 95
       16
302
GRIDFORMAT
  1
GRIDFORMAT_BEGIN
 90
        0
 91
        1
 62
     0
 92
       -2
340
14
 93
        0
 40
0.045
309
GRIDFORMAT_END
 95
       32
302
GRIDFORMAT
  1
GRIDFORMAT_BEGIN
 90
        0
 91
        1
 62
     0
 92
       -2
340
14
 93
        0
 40
0.045
309
GRIDFORMAT_END
309
TABLEFORMAT_END
  1
CELLSTYLE_BEGIN
 90
        1
 91
        1
300
_TITLE
309
CELLSTYLE_END
300
CELLSTYLE
  1
TABLEFORMAT_BEGIN
 90
        5
170
     1
 91
        0
 92
        0
 62
   257
 93
        1
300
CONTENTFORMAT
  1
CONTENTFORMAT_BEGIN
 90
        0
 91
        0
 92
        4
 93
        0
300

 40
0.0
140
1.0
 94
        5
 62
     0
340
11
144
4.5
309
CONTENTFORMAT_END
171
     1
301
MARGIN
  1
CELLMARGIN_BEGIN
 40
1.5
 40
1.5
 40
1.5
 40
1.5
 40
1.5
 40
1.5
309
CELLMARGIN_END
 94
        6
 95
        1
302
GRIDFORMAT
  1
GRIDFORMAT_BEGIN
 90
        0
 91
        1
 62
     0
 92
       -2
340
14
 93
        0
 40
0.045
309
GRIDFORMAT_END
 95
        2
302
GRIDFORMAT
  1
GRIDFORMAT_BEGIN
 90
        0
 91
        1
 62
     0
 92
       -2
340
14
 93
        0
 40
0.045
309
GRIDFORMAT_END
 95
        4
302
GRIDFORMAT
  1
GRIDFORMAT_BEGIN
 90
        0
 91
        1
 62
     0
 92
       -2
340
14
 93
        0
 40
0.045
309
GRIDFORMAT_END
 95
        8
302
GRIDFORMAT
  1
GRIDFORMAT_BEGIN
 90
        0
 91
        1
 62
     0
 92
       -2
340
14
 93
        0
 40
0.045
309
GRIDFORMAT_END
 95
       16
302
GRIDFORMAT
  1
GRIDFORMAT_BEGIN
 90
        0
 91
        1
 62
     0
 92
       -2
340
14
 93
        0
 40
0.045
309
GRIDFORMAT_END
 95
       32
302
GRIDFORMAT
  1
GRIDFORMAT_BEGIN
 90
        0
 91
        1
 62
     0
 92
       -2
340
14
 93
        0
 40
0.045
309
GRIDFORMAT_END
309
TABLEFORMAT_END
  1
CELLSTYLE_BEGIN
 90
        2
 91
        1
300
_HEADER
309
CELLSTYLE_END
300
CELLSTYLE
  1
TABLEFORMAT_BEGIN
 90
        5
170
     1
 91
        0
 92
        0
 62
   257
 93
        1
300
CONTENTFORMAT
  1
CONTENTFORMAT_BEGIN
 90
        0
 91
        0
 92
        4
 93
        0
300

 40
0.0
140
1.0
 94
        2
 62
     0
340
11
144
4.5
309
CONTENTFORMAT_END
171
     1
301
MARGIN
  1
CELLMARGIN_BEGIN
 40
1.5
 40
1.5
 40
1.5
 40
1.5
 40
1.5
 40
1.5
309
CELLMARGIN_END
 94
        6
 95
        1
302
GRIDFORMAT
  1
GRIDFORMAT_BEGIN
 90
        0
 91
        1
 62
     0
 92
       -2
340
14
 93
        0
 40
0.045
309
GRIDFORMAT_END
 95
        2
302
GRIDFORMAT
  1
GRIDFORMAT_BEGIN
 90
        0
 91
        1
 62
     0
 92
       -2
340
14
 93
        0
 40
0.045
309
GRIDFORMAT_END
 95
        4
302
GRIDFORMAT
  1
GRIDFORMAT_BEGIN
 90
        0
 91
        1
 62
     0
 92
       -2
340
14
 93
        0
 40
0.045
309
GRIDFORMAT_END
 95
        8
302
GRIDFORMAT
  1
GRIDFORMAT_BEGIN
 90
        0
 91
        1
 62
     0
 92
       -2
340
14
 93
        0
 40
0.045
309
GRIDFORMAT_END
 95
       16
302
GRIDFORMAT
  1
GRIDFORMAT_BEGIN
 90
        0
 91
        1
 62
     0
 92
       -2
340
14
 93
        0
 40
0.045
309
GRIDFORMAT_END
 95
       32
302
GRIDFORMAT
  1
GRIDFORMAT_BEGIN
 90
        0
 91
        1
 62
     0
 92
       -2
340
14
 93
        0
 40
0.045
309
GRIDFORMAT_END
309
TABLEFORMAT_END
  1
CELLSTYLE_BEGIN
 90
        3
 91
        2
300
_DATA
309
CELLSTYLE_END
  0
ENDSEC
  0
EOF
